  0
SECTION
  2
HEADER
  9
$ACADVER
  1
AC1009
  9
$INSBASE
 10
0.0
 20
0.0
 30
0.0
  9
$LIMMIN
 10
0.0
 20
0.0
  9
$LIMMAX
 10
420.0000
 20
297.0000
  9
$EXTMIN
 10
55.1942
 20
122.5805
  9
$EXTMAX
 10
2135.3219
 20
1447.4560
  9
$VIEWCTR
 10
1095.2580
 20
785.0183
  9
$VIEWSIZE
 40
1325.7346
  9
$DIMLFAC
 40
1.0000
  9
$MEASUREMENT
 70
     1
  9
$DWGCODEPAGE
 3
ANSI_1250
  9
$CLAYER
  8
NEVIDITELNA
  9
$CELTYPE
  6
BYLAYER
  9
$CECOLOR
 62
  256
  9
$ORTHOMODE
 70
     0
  9
$REGENMODE
 70
     1
  9
$FILLMODE
 70
     1
  9
$QTEXTMODE
 70
     0
  9
$MIRRTEXT
 70
     1
  9
$DRAGMODE
 70
     2
  9
$LTSCALE
 40
1.0
  9
$OSMODE
 70
    37
  9
$ATTMODE
 70
     1
  9
$TEXTSIZE
 40
2.5
  9
$TRACEWID
 40
1.0
  9
$TEXTSTYLE
  7
STANDARD
  9
$CLAYER
  8
0
  9
$CELTYPE
  6
BYLAYER
  9
$CECOLOR
 62
   256
  9
$DIMSCALE
 40
1.0
  9
$DIMASZ
 40
2.5
  9
$DIMEXO
 40
0.625
  9
$DIMDLI
 40
3.75
  9
$DIMRND
 40
0.0
  9
$DIMDLE
 40
0.0
  9
$DIMEXE
 40
1.25
  9
$DIMTP
 40
0.0
  9
$DIMTM
 40
0.0
  9
$DIMTXT
 40
2.5
  9
$DIMCEN
 40
2.5
  9
$DIMTSZ
 40
0.0
  9
$DIMTOL
 70
     0
  9
$DIMLIM
 70
     0
  9
$DIMTIH
 70
     0
  9
$DIMTOH
 70
     0
  9
$DIMSE1
 70
     0
  9
$DIMSE2
 70
     0
  9
$DIMTAD
 70
     1
  9
$DIMZIN
 70
     8
  9
$DIMBLK
  1

  9
$DIMASO
 70
     1
  9
$DIMSHO
 70
     1
  9
$DIMPOST
  1

  9
$DIMAPOST
  1

  9
$DIMALT
 70
     0
  9
$DIMALTD
 70
     3
  9
$DIMALTF
 40
0.03937007874016
  9
$DIMTOFL
 70
     1
  9
$DIMTVP
 40
0.0
  9
$DIMTIX
 70
     0
  9
$DIMSOXD
 70
     0
  9
$DIMSAH
 70
     0
  9
$DIMBLK1
  1

  9
$DIMBLK2
  1

  9
$DIMSTYLE
  2
ISO-25
  9
$DIMCLRD
 70
     0
  9
$DIMCLRE
 70
     0
  9
$DIMCLRT
 70
     0
  9
$DIMTFAC
 40
1.0
  9
$DIMGAP
 40
0.625
  9
$LUNITS
 70
     2
  9
$LUPREC
 70
     4
  9
$SKETCHINC
 40
1.0
  9
$FILLETRAD
 40
10.0
  9
$AUNITS
 70
     0
  9
$AUPREC
 70
     0
  9
$MENU
  1
.
  9
$ELEVATION
 40
0.0
  9
$PELEVATION
 40
0.0
  9
$THICKNESS
 40
0.0
  9
$LIMCHECK
 70
     0
  9
$BLIPMODE
 70
     0
  9
$CHAMFERA
 40
10.0
  9
$CHAMFERB
 40
10.0
  9
$SKPOLY
 70
     0
  9
$TDCREATE
 40
2451579.5163292708
  9
$TDUPDATE
 40
2451579.6904035881
  9
$TDINDWG
 40
0.0082924769
  9
$TDUSRTIMER
 40
0.0082825116
  9
$USRTIMER
 70
     1
  9
$ANGBASE
 50
0.0
  9
$ANGDIR
 70
     0
  9
$PDMODE
 70
     0
  9
$PDSIZE
 40
0.0
  9
$PLINEWID
 40
0.0
  9
$COORDS
 70
     1
  9
$SPLFRAME
 70
     0
  9
$SPLINETYPE
 70
     6
  9
$SPLINESEGS
 70
     8
  9
$ATTDIA
 70
     0
  9
$ATTREQ
 70
     1
  9
$SURFTAB1
 70
     6
  9
$SURFTAB2
 70
     6
  9
$SURFTYPE
 70
     6
  9
$SURFU
 70
     6
  9
$SURFV
 70
     6
  9
$UCSNAME
  2

  9
$UCSORG
 10
0.0
 20
0.0
 30
0.0
  9
$UCSXDIR
 10
1.0
 20
0.0
 30
0.0
  9
$UCSYDIR
 10
0.0
 20
1.0
 30
0.0
  9
$PUCSNAME
  2

  9
$PUCSORG
 10
0.0
 20
0.0
 30
0.0
  9
$PUCSXDIR
 10
1.0
 20
0.0
 30
0.0
  9
$PUCSYDIR
 10
0.0
 20
1.0
 30
0.0
  9
$USERI1
 70
     0
  9
$USERI2
 70
     0
  9
$USERI3
 70
     0
  9
$USERI4
 70
     0
  9
$USERI5
 70
     0
  9
$USERR1
 40
0.0
  9
$USERR2
 40
0.0
  9
$USERR3
 40
0.0
  9
$USERR4
 40
0.0
  9
$USERR5
 40
0.0
  9
$WORLDVIEW
 70
     1
  9
$SHADEDGE
 70
     3
  9
$SHADEDIF
 70
    70
  9
$TILEMODE
 70
     1
  9
$MAXACTVP
 70
    64
  9
$PLIMCHECK
 70
     0
  9
$PEXTMIN
 10
1.0000000000000000E+020
 20
1.0000000000000000E+020
 30
1.0000000000000000E+020
  9
$PEXTMAX
 10
-1.0000000000000000E+020
 20
-1.0000000000000000E+020
 30
-1.0000000000000000E+020
  9
$PLIMMIN
 10
0.0
 20
0.0
  9
$PLIMMAX
 10
420.0
 20
297.0
  9
$UNITMODE
 70
     0
  9
$VISRETAIN
 70
     1
  9
$PLINEGEN
 70
     0
  9
$PSLTSCALE
 70
     1
  0
ENDSEC
  0
SECTION
  2
TABLES
  0
TABLE
  2
VPORT
 70
     2
  0
VPORT
  2
*ACTIVE
 70
     0
 10
0.0
 20
0.0
 11
1.0
 21
1.0
 12
1095.2580
 22
785.0183
 13
0.0
 23
0.0
 14
10.0
 24
10.0
 15
10.0
 25
10.0
 16
0.0
 26
0.0
 36
1.0
 17
0.0
 27
0.0
 37
0.0
 40
1325.7346
 41
1.6916
 42
50.0
 43
0.0
 44
0.0
 50
0.0
 51
0.0
 71
     0
 72
   100
 73
     1
 74
     3
 75
     0
 76
     0
 77
     0
 78
     0
  0
ENDTAB
  0
TABLE
  2
LTYPE
 70
     7
  0
LTYPE
  2
CONTINUOUS
 70
     0
  3
Solid line
 72
    65
 73
     0
 40
0.0
  0
LTYPE
  2
HIDDEN2
 70
     0
  3
Hidden (.5x) _ _ _ _ _ _ _ _ _ _ _ _ _ _ _ _ _
 72
    65
 73
     2
 40
5.1
 49
3.5
 49
-1.6
  0
LTYPE
  2
DASHDOT
 70
     0
  3
Dash dot __ . __ . __ . __ . __ . __ . __ . __
 72
    65
 73
     4
 40
10.4
 49
6.2
 49
-2.1
 49
0.0
 49
-2.1
  0
LTYPE
  2
DOT
 70
     0
  3
Dot . . . . . . . . . . . . . . . . . . . . . .
 72
    65
 73
     2
 40
2.2
 49
1.1
 49
-1.1
  0
LTYPE
  2
DASHED
 70
     0
  3
Dashed __ __ __ __ __ __ __ __ __ __ __ __ __ _
 72
    65
 73
     2
 40
11.049999999999979
 49
8.699999999999999
 49
-2.3499999999999979
  0
LTYPE
  2
PHANTOM2
 70
     0
  3
Phantom (.5x) ___ _ _ ___ _ _ ___ _ _ ___ _ _
 72
    65
 73
     6
 40
18.3
 49
7.8
 49
-2.1
 49
2.1
 49
-2.1
 49
2.1
 49
-2.1
  0
LTYPE
  2
CENTER
 70
     0
  3
Center ____ _ ____ _ ____ _ ____ _ ____ _ ____
 72
    65
 73
     4
 40
14.1
 49
7.8
 49
-2.1
 49
2.1
 49
-2.1
  0
ENDTAB
  0
TABLE
  2
LAYER
 70
     8
  0
LAYER
  2
0
 70
    64
 62
     7
  6
CONTINUOUS
  0
LAYER
  2
NEVIDITELNA
 70
    64
 62
     4
  6
DASHED
  0
LAYER
  2
KOTA
 70
    64
 62
     3
  6
CONTINUOUS
  0
LAYER
  2
SRAFY
 70
    64
 62
     7
  6
CONTINUOUS
  0
LAYER
  2
OSA
 70
    64
 62
     7
  6
CENTER
  0
LAYER
  2
TENKA
 70
    64
 62
     7
  6
CONTINUOUS
  0
LAYER
  2
OBRYS
 70
    64
 62
     2
  6
CONTINUOUS
  0
LAYER
  2
DEFPOINTS
 70
    64
 62
     7
  6
CONTINUOUS
  0
ENDTAB
  0
TABLE
  2
STYLE
 70
     1
  0
STYLE
  2
STANDARD
 70
     0
 40
0.0
 41
1.0
 50
0.0
 71
     0
 42
2.5
  3
txt
  4

  0
ENDTAB
  0
TABLE
  2
VIEW
 70
     0
  0
ENDTAB
  0
TABLE
  2
UCS
 70
     0
  0
ENDTAB
  0
TABLE
  2
APPID
 70
     1
  0
APPID
  2
ACAD
 70
     0
  0
ENDTAB
  0
TABLE
  2
DIMSTYLE
 70
     1
  0
DIMSTYLE
  2
ISO-25
 70
     0
  3

  4

  5

  6

  7

 40
1.0
 41
2.5
 42
0.625
 43
3.75
 44
1.25
 45
0.0
 46
0.0
 47
0.0
 48
0.0
140
2.5
141
2.5
142
0.0
143
0.03937007874016
144
1.0
145
0.0
146
1.0
147
0.625
 71
     0
 72
     0
 73
     0
 74
     0
 75
     0
 76
     0
 77
     1
 78
     8
170
     0
171
     3
172
     1
173
     0
174
     0
175
     0
176
     0
177
     0
178
     0
  0
ENDTAB
  0
ENDSEC
  0
SECTION
  2
BLOCKS
  0
BLOCK
  8
0
  2
$MODEL_SPACE
 70
     0
 10
0.0
 20
0.0
 30
0.0
  3
$MODEL_SPACE
  1

  0
ENDBLK
  8
0
  0
BLOCK
 67
     1
  8
0
  2
$PAPER_SPACE
 70
     0
 10
0.0
 20
0.0
 30
0.0
  3
$PAPER_SPACE
  1

  0
ENDBLK
 67
     1
  8
0
  0
ENDSEC
  0
SECTION
  2
ENTITIES
  0
TEXT
  8
OBRYS
 62
     4
 10
277.143036
 20
888.805420
 40
15.000000
  1
MTC 72A 132/265
 50
0.00
 51
0.00
 41
0.80
  0
TEXT
  8
OBRYS
 62
     4
 10
1292.207153
 20
891.051147
 40
15.000000
  1
MTC 72A 132/265
 50
0.00
 51
0.00
 41
0.80
  0
LINE
  8
OBRYS
 10
894.920464
 20
944.504344
 11
894.920464
 21
948.504344
  0
LINE
  8
OBRYS
 10
881.920464
 20
948.504344
 11
881.920464
 21
944.504344
  0
ARC
  8
OBRYS
 10
882.920464
 20
948.504344
 40
1.000000
 50
90.000000
 51
180.000000
  0
ARC
  8
OBRYS
 10
893.920464
 20
948.504344
 40
1.000000
 50
0.000000
 51
90.000000
  0
ARC
  8
OBRYS
 10
767.920464
 20
948.504344
 40
1.000000
 50
90.000000
 51
180.000000
  0
ARC
  8
OBRYS
 10
778.920464
 20
948.504344
 40
1.000000
 50
0.000000
 51
90.000000
  0
LINE
  8
OBRYS
 10
779.920464
 20
944.504344
 11
779.920464
 21
948.504344
  0
LINE
  8
OBRYS
 10
766.920464
 20
948.504344
 11
766.920464
 21
944.504344
  0
ARC
  8
OBRYS
 10
997.920464
 20
948.504344
 40
1.000000
 50
90.000000
 51
180.000000
  0
ARC
  8
OBRYS
 10
1008.920464
 20
948.504344
 40
1.000000
 50
0.000000
 51
90.000000
  0
LINE
  8
OBRYS
 10
1009.920464
 20
944.504344
 11
1009.920464
 21
948.504344
  0
LINE
  8
OBRYS
 10
996.920464
 20
948.504344
 11
996.920464
 21
944.504344
  0
LINE
  8
OBRYS
 10
965.920464
 20
944.504344
 11
965.920464
 21
946.004344
  0
LINE
  8
OBRYS
 10
940.920464
 20
946.004344
 11
940.920464
 21
944.504344
  0
LINE
  8
OBRYS
 10
963.920464
 20
946.004344
 11
963.920464
 21
953.254344
  0
LINE
  8
OBRYS
 10
942.920464
 20
953.254344
 11
942.920464
 21
946.004344
  0
ARC
  8
OBRYS
 10
943.670464
 20
953.254344
 40
0.750000
 50
90.000000
 51
180.000000
  0
ARC
  8
OBRYS
 10
963.170464
 20
953.254344
 40
0.750000
 50
0.000000
 51
90.000000
  0
LINE
  8
OBRYS
 10
714.549226
 20
700.004344
 11
713.920464
 21
700.004344
  0
LINE
  8
OBRYS
 10
713.920464
 20
698.004344
 11
711.920464
 21
698.004344
  0
LINE
  8
OBRYS
 10
711.920464
 20
677.004344
 11
713.720634
 21
677.004344
  0
ARC
  8
OBRYS
 10
711.920464
 20
678.004344
 40
1.000000
 50
180.000000
 51
270.000000
  0
ARC
  8
OBRYS
 10
711.920464
 20
697.004344
 40
1.000000
 50
90.000000
 51
180.000000
  0
LINE
  8
OBRYS
 10
903.420464
 20
944.504344
 11
903.334166
 21
946.975612
  0
LINE
  8
OBRYS
 10
873.506763
 20
946.975612
 11
873.420464
 21
944.504344
  0
ARC
  8
OBRYS
 10
871.643503
 20
947.004389
 40
1.857109
 50
358.937858
 51
57.406079
  0
ARC
  8
OBRYS
 10
905.168193
 20
947.016565
 40
1.826301
 50
122.549059
 51
181.376948
  0
CIRCLE
  8
OBRYS
 10
888.420464
 20
970.504344
 40
15.000000
  0
ARC
  8
OBRYS
 10
888.420464
 20
970.504344
 40
27.000000
 50
305.706274
 51
360.000000
  0
ARC
  8
OBRYS
 10
888.420464
 20
970.504344
 40
27.000000
 50
0.000000
 51
234.279518
  0
ARC
  8
OBRYS
 10
1064.920464
 20
622.004344
 40
1.000000
 50
0.000000
 51
90.000000
  0
ARC
  8
OBRYS
 10
1064.920464
 20
603.004344
 40
1.000000
 50
270.000000
 51
360.000000
  0
LINE
  8
OBRYS
 10
1063.420464
 20
602.004344
 11
1064.920464
 21
602.004344
  0
LINE
  8
OBRYS
 10
1064.920464
 20
623.004344
 11
1063.420464
 21
623.004344
  0
CIRCLE
  8
OBRYS
 10
888.420464
 20
812.504344
 40
29.000000
  0
CIRCLE
  8
OBRYS
 10
888.420464
 20
812.504344
 40
14.200000
  0
CIRCLE
  8
OBRYS
 10
888.420464
 20
812.504344
 40
30.000000
  0
CIRCLE
  8
OBRYS
 10
888.420464
 20
812.504344
 40
10.500000
  0
LINE
  8
OBRYS
 10
879.420464
 20
846.504344
 11
897.420464
 21
846.504344
  0
LINE
  8
OBRYS
 10
897.420464
 20
846.504344
 11
897.420464
 21
841.122520
  0
LINE
  8
OBRYS
 10
879.420464
 20
846.504344
 11
879.420464
 21
841.122520
  0
CIRCLE
  8
OBRYS
 10
888.420464
 20
812.504344
 40
8.750000
  0
CIRCLE
  8
OBRYS
 10
888.420464
 20
812.504344
 40
39.272060
  0
CIRCLE
  8
OBRYS
 10
888.420464
 20
812.504344
 40
40.000000
  0
CIRCLE
  8
OBRYS
 10
888.420464
 20
812.504344
 40
80.000000
  0
CIRCLE
  8
OBRYS
 10
888.420464
 20
812.504344
 40
70.000000
  0
LINE
  8
OBRYS
 10
948.311987
 20
745.325437
 11
947.793081
 21
744.866393
  0
LINE
  8
OBRYS
 10
947.793081
 20
744.866393
 11
947.323240
 21
744.456838
  0
LINE
  8
OBRYS
 10
947.323240
 20
744.456838
 11
946.396326
 21
743.909418
  0
LINE
  8
OBRYS
 10
946.396326
 20
743.909418
 11
945.339173
 21
743.723788
  0
LINE
  8
OBRYS
 10
945.339173
 20
743.723788
 11
945.765889
 21
744.121835
  0
LINE
  8
OBRYS
 10
945.765889
 20
744.121835
 11
946.234678
 21
744.565368
  0
ARC
  8
OBRYS
 10
946.314488
 20
747.565976
 40
3.001669
 50
268.476413
 51
311.717836
  0
LINE
  8
OBRYS
 10
902.272664
 20
693.324256
 11
902.443266
 21
693.361570
  0
LINE
  8
OBRYS
 10
902.443266
 20
693.361570
 11
903.098318
 21
693.565242
  0
ARC
  8
OBRYS
 10
945.075536
 20
701.080815
 40
43.500000
 50
88.473061
 51
190.271437
  0
ARC
  8
OBRYS
 10
945.075536
 20
701.080815
 40
42.643788
 50
89.645777
 51
190.151035
  0
ARC
  8
OBRYS
 10
901.289767
 20
698.226695
 40
5.000000
 50
276.425256
 51
281.337007
  0
ARC
  8
OBRYS
 10
875.551162
 20
698.226695
 40
5.000000
 50
185.000000
 51
263.574744
  0
LINE
  8
OBRYS
 10
901.226569
 20
932.504344
 11
875.614359
 21
932.504344
  0
LINE
  8
OBRYS
 10
908.323767
 20
903.751567
 11
906.207543
 21
927.940123
  0
ARC
  8
OBRYS
 10
913.304741
 20
904.187346
 40
5.000000
 50
185.000000
 51
254.814809
  0
ARC
  8
OBRYS
 10
888.420464
 20
812.504344
 40
90.000000
 50
45.185191
 51
74.814809
  0
ARC
  8
OBRYS
 10
888.420464
 20
812.504344
 40
90.000000
 50
345.185191
 51
14.814809
  0
ARC
  8
OBRYS
 10
888.420464
 20
812.504344
 40
90.000000
 50
311.717729
 51
314.814809
  0
CIRCLE
  8
OBRYS
 10
801.817924
 20
862.504344
 40
8.000000
  0
CIRCLE
  8
OBRYS
 10
801.817924
 20
762.504344
 40
8.000000
  0
CIRCLE
  8
OBRYS
 10
888.420464
 20
712.504344
 40
8.000000
  0
CIRCLE
  8
OBRYS
 10
975.023005
 20
762.504344
 40
8.000000
  0
CIRCLE
  8
OBRYS
 10
975.023005
 20
862.504344
 40
8.000000
  0
CIRCLE
  8
OBRYS
 10
888.420464
 20
912.504344
 40
8.000000
  0
ARC
  8
OBRYS
 10
980.262411
 20
788.213259
 40
5.000000
 50
165.185191
 51
235.000000
  0
LINE
  8
OBRYS
 10
996.690345
 20
770.606423
 11
977.394529
 21
784.117499
  0
ARC
  8
OBRYS
 10
901.226569
 20
927.504344
 40
5.000000
 50
5.000000
 51
90.000000
  0
ARC
  8
OBRYS
 10
993.822463
 20
858.498026
 40
5.000000
 50
305.000000
 51
23.574744
  0
LINE
  8
OBRYS
 10
977.394529
 20
840.891190
 11
996.690345
 21
854.402265
  0
ARC
  8
OBRYS
 10
980.262411
 20
836.795429
 40
5.000000
 50
125.000000
 51
194.814809
  0
ARC
  8
OBRYS
 10
980.953160
 20
744.220377
 40
5.000000
 50
245.000000
 51
323.574744
  0
ARC
  8
OBRYS
 10
875.614359
 20
927.504344
 40
5.000000
 50
90.000000
 51
175.000000
  0
ARC
  8
OBRYS
 10
955.378135
 20
745.112428
 40
5.000000
 50
65.000000
 51
134.814809
  0
ARC
  8
OBRYS
 10
888.420464
 20
812.504344
 40
120.000000
 50
323.574744
 51
336.425256
  0
ARC
  8
OBRYS
 10
783.018466
 20
858.498026
 40
5.000000
 50
156.425256
 51
235.000000
  0
ARC
  8
OBRYS
 10
888.420464
 20
812.504344
 40
120.000000
 50
263.574744
 51
276.425256
  0
ARC
  8
OBRYS
 10
955.378135
 20
879.896260
 40
5.000000
 50
225.185191
 51
295.000000
  0
LINE
  8
OBRYS
 10
978.840069
 20
885.319850
 11
957.491226
 21
875.364722
  0
LINE
  8
OBRYS
 10
957.491226
 20
749.643967
 11
978.840069
 21
739.688838
  0
LINE
  8
OBRYS
 10
798.000860
 20
739.688838
 11
819.349703
 21
749.643967
  0
ARC
  8
OBRYS
 10
795.887769
 20
744.220377
 40
5.000000
 50
216.425256
 51
295.000000
  0
ARC
  8
OBRYS
 10
888.420464
 20
812.504344
 40
120.000000
 50
203.574744
 51
216.425256
  0
ARC
  8
OBRYS
 10
783.018466
 20
766.510663
 40
5.000000
 50
125.000000
 51
203.574744
  0
LINE
  8
OBRYS
 10
799.446400
 20
784.117499
 11
780.150584
 21
770.606423
  0
ARC
  8
OBRYS
 10
796.578518
 20
788.213259
 40
5.000000
 50
305.000000
 51
14.814809
  0
ARC
  8
OBRYS
 10
888.420464
 20
812.504344
 40
90.000000
 50
165.185191
 51
194.814809
  0
ARC
  8
OBRYS
 10
796.578518
 20
836.795429
 40
5.000000
 50
345.185191
 51
55.000000
  0
LINE
  8
OBRYS
 10
780.150584
 20
854.402265
 11
799.446400
 21
840.891190
  0
ARC
  8
OBRYS
 10
888.420464
 20
812.504344
 40
90.000000
 50
105.185191
 51
134.814809
  0
ARC
  8
OBRYS
 10
888.420464
 20
812.504344
 40
120.000000
 50
143.574744
 51
156.425256
  0
ARC
  8
OBRYS
 10
795.887769
 20
880.788312
 40
5.000000
 50
65.000000
 51
143.574744
  0
LINE
  8
OBRYS
 10
819.349703
 20
875.364722
 11
798.000860
 21
885.319850
  0
ARC
  8
OBRYS
 10
980.953160
 20
880.788312
 40
5.000000
 50
36.425256
 51
115.000000
  0
ARC
  8
OBRYS
 10
888.420464
 20
812.504344
 40
120.000000
 50
23.574744
 51
36.425256
  0
ARC
  8
OBRYS
 10
863.536188
 20
904.187346
 40
5.000000
 50
285.185191
 51
355.000000
  0
LINE
  8
OBRYS
 10
870.633386
 20
927.940123
 11
868.517161
 21
903.751567
  0
ARC
  8
OBRYS
 10
821.462794
 20
879.896260
 40
5.000000
 50
245.000000
 51
314.814809
  0
ARC
  8
OBRYS
 10
993.822463
 20
766.510663
 40
5.000000
 50
336.425256
 51
55.000000
  0
ARC
  8
OBRYS
 10
863.536188
 20
720.821343
 40
5.000000
 50
5.000000
 51
74.814809
  0
ARC
  8
OBRYS
 10
821.462794
 20
745.112428
 40
5.000000
 50
45.185191
 51
115.000000
  0
LINE
  8
OBRYS
 10
868.517161
 20
721.257121
 11
870.570188
 21
697.790916
  0
ARC
  8
OBRYS
 10
888.420464
 20
812.504344
 40
90.000000
 50
225.185191
 51
254.814809
  0
CIRCLE
  8
OBRYS
 10
975.023005
 20
762.504344
 40
7.000000
  0
CIRCLE
  8
OBRYS
 10
801.817924
 20
762.504344
 40
7.000000
  0
CIRCLE
  8
OBRYS
 10
888.420464
 20
912.504344
 40
7.000000
  0
CIRCLE
  8
OBRYS
 10
975.023005
 20
862.504344
 40
7.000000
  0
CIRCLE
  8
OBRYS
 10
801.817924
 20
862.504344
 40
7.000000
  0
CIRCLE
  8
OBRYS
 10
888.420464
 20
712.504344
 40
7.000000
  0
LINE
  8
OBRYS
 10
1043.506878
 20
587.504344
 11
1043.506878
 21
632.504344
  0
LINE
  8
OBRYS
 10
1043.506878
 20
632.504344
 11
1048.336507
 21
632.504344
  0
LINE
  8
OBRYS
 10
1048.336507
 20
632.504344
 11
1048.336507
 21
587.504344
  0
LINE
  8
OBRYS
 10
1048.336507
 20
587.504344
 11
1043.506878
 21
587.504344
  0
LINE
  8
OBRYS
 10
983.195581
 20
637.504344
 11
983.195581
 21
632.504344
  0
LINE
  8
OBRYS
 10
978.271543
 20
632.504344
 11
983.195581
 21
632.504344
  0
ARC
  8
OBRYS
 10
983.233855
 20
632.542036
 40
4.962455
 50
90.441905
 51
180.435192
  0
LINE
  8
OBRYS
 10
1043.506878
 20
587.504344
 11
983.195581
 21
587.504344
  0
LINE
  8
OBRYS
 10
983.195581
 20
632.504344
 11
983.195581
 21
587.504344
  0
LINE
  8
OBRYS
 10
1043.506878
 20
632.504344
 11
983.195581
 21
632.504344
  0
ARC
  8
OBRYS
 10
1043.420190
 20
632.588078
 40
4.917030
 50
359.024239
 51
88.989815
  0
LINE
  8
OBRYS
 10
1043.506878
 20
637.504344
 11
1043.506878
 21
632.504344
  0
LINE
  8
OBRYS
 10
978.271543
 20
587.504344
 11
978.271543
 21
632.504344
  0
LINE
  8
OBRYS
 10
983.195581
 20
587.504344
 11
978.271543
 21
587.504344
  0
LINE
  8
OBRYS
 10
983.195581
 20
637.504344
 11
1043.506878
 21
637.504344
  0
LINE
  8
OBRYS
 10
793.645347
 20
632.504344
 11
793.645347
 21
637.504344
  0
ARC
  8
OBRYS
 10
793.607074
 20
632.542036
 40
4.962455
 50
359.564808
 51
89.558095
  0
LINE
  8
OBRYS
 10
793.645347
 20
632.504344
 11
798.569386
 21
632.504344
  0
LINE
  8
OBRYS
 10
793.645347
 20
587.504344
 11
793.645347
 21
632.504344
  0
LINE
  8
OBRYS
 10
798.569386
 20
632.504344
 11
798.569386
 21
587.504344
  0
LINE
  8
OBRYS
 10
798.569386
 20
587.504344
 11
793.645347
 21
587.504344
  0
LINE
  8
OBRYS
 10
793.645347
 20
632.504344
 11
733.334051
 21
632.504344
  0
LINE
  8
OBRYS
 10
733.334051
 20
632.504344
 11
733.334051
 21
637.504344
  0
LINE
  8
OBRYS
 10
733.334051
 20
637.504344
 11
793.645347
 21
637.504344
  0
LINE
  8
OBRYS
 10
733.334051
 20
632.504344
 11
733.334051
 21
587.504344
  0
LINE
  8
OBRYS
 10
793.645347
 20
587.504344
 11
733.334051
 21
587.504344
  0
ARC
  8
OBRYS
 10
733.420739
 20
632.588078
 40
4.917030
 50
91.010185
 51
180.975761
  0
LINE
  8
OBRYS
 10
728.504422
 20
632.504344
 11
733.334051
 21
632.504344
  0
LINE
  8
OBRYS
 10
728.504422
 20
587.504344
 11
728.504422
 21
632.504344
  0
LINE
  8
OBRYS
 10
733.334051
 20
587.504344
 11
728.504422
 21
587.504344
  0
LINE
  8
OBRYS
 10
1063.250094
 20
632.504344
 11
1048.336507
 21
632.504344
  0
LINE
  8
OBRYS
 10
1063.250094
 20
587.504344
 11
1063.250094
 21
632.504344
  0
LINE
  8
OBRYS
 10
1063.250094
 20
587.504344
 11
1048.336507
 21
587.504344
  0
ARC
  8
OBRYS
 10
1058.189150
 20
633.828893
 40
5.231403
 50
345.333533
 51
359.666467
  0
LINE
  8
OBRYS
 10
1043.506878
 20
637.504344
 11
1056.904338
 21
637.504344
  0
ARC
  8
OBRYS
 10
1056.904513
 20
631.411911
 40
6.092433
 50
82.372432
 51
90.001649
  0
ARC
  8
OBRYS
 10
1054.409286
 20
622.467988
 40
15.342409
 50
54.031673
 51
77.564289
  0
LINE
  8
OBRYS
 10
1063.420464
 20
634.885241
 11
1063.420464
 21
633.798439
  0
LINE
  8
OBRYS
 10
713.590835
 20
632.504344
 11
713.590835
 21
587.504344
  0
LINE
  8
OBRYS
 10
728.504422
 20
632.504344
 11
713.590835
 21
632.504344
  0
LINE
  8
OBRYS
 10
728.504422
 20
587.504344
 11
713.590835
 21
587.504344
  0
LINE
  8
OBRYS
 10
719.936591
 20
637.504344
 11
733.334051
 21
637.504344
  0
ARC
  8
OBRYS
 10
718.535901
 20
633.813637
 40
5.115460
 50
180.170221
 51
194.829779
  0
LINE
  8
OBRYS
 10
713.420464
 20
633.798439
 11
713.420464
 21
634.885241
  0
ARC
  8
OBRYS
 10
722.852635
 20
621.531327
 40
16.349093
 50
103.169614
 51
125.234424
  0
ARC
  8
OBRYS
 10
719.936153
 20
631.415850
 40
6.088494
 50
89.995880
 51
97.630039
  0
LINE
  8
OBRYS
 10
968.420464
 20
587.504344
 11
968.420464
 21
588.844090
  0
LINE
  8
OBRYS
 10
968.398140
 20
589.316937
 11
968.416987
 21
589.048423
  0
LINE
  8
OBRYS
 10
968.416987
 20
589.048423
 11
968.420464
 21
588.844090
  0
ARC
  8
OBRYS
 10
933.741313
 20
596.623439
 40
35.418649
 50
348.094993
 51
1.425163
  0
LINE
  8
OBRYS
 10
969.149005
 20
632.504344
 11
969.149005
 21
597.504344
  0
LINE
  8
OBRYS
 10
978.271543
 20
632.504344
 11
969.149005
 21
632.504344
  0
LINE
  8
OBRYS
 10
978.271543
 20
587.504344
 11
968.420464
 21
587.504344
  0
ARC
  8
OBRYS
 10
974.266652
 20
632.386580
 40
5.119002
 50
88.739816
 51
178.681780
  0
LINE
  8
OBRYS
 10
974.379232
 20
637.504344
 11
983.195581
 21
637.504344
  0
LINE
  8
OBRYS
 10
808.420464
 20
587.504344
 11
808.420464
 21
588.844090
  0
LINE
  8
OBRYS
 10
807.691924
 20
632.504344
 11
798.569386
 21
632.504344
  0
LINE
  8
OBRYS
 10
807.691924
 20
597.504344
 11
807.691924
 21
632.504344
  0
ARC
  8
OBRYS
 10
846.922313
 20
596.974018
 40
39.233974
 50
179.225508
 51
191.254336
  0
LINE
  8
OBRYS
 10
808.420464
 20
588.844090
 11
808.427731
 21
589.132157
  0
LINE
  8
OBRYS
 10
808.427731
 20
589.132157
 11
808.442789
 21
589.316937
  0
LINE
  8
OBRYS
 10
808.420464
 20
587.504344
 11
798.569386
 21
587.504344
  0
LINE
  8
OBRYS
 10
793.645347
 20
637.504344
 11
802.461696
 21
637.504344
  0
ARC
  8
OBRYS
 10
802.574277
 20
632.386580
 40
5.119002
 50
1.318220
 51
91.260184
  0
ARC
  8
OBRYS
 10
913.568670
 20
813.652242
 40
69.851787
 50
353.333231
 51
5.661189
  0
LINE
  8
OBRYS
 10
982.948130
 20
805.542820
 11
982.006765
 21
805.568441
  0
LINE
  8
OBRYS
 10
982.006765
 20
805.568441
 11
981.099325
 21
805.503043
  0
LINE
  8
OBRYS
 10
981.099325
 20
805.503043
 11
980.258512
 21
805.348986
  0
LINE
  8
OBRYS
 10
980.258512
 20
805.348986
 11
979.514626
 21
805.111819
  0
LINE
  8
OBRYS
 10
979.514626
 20
805.111819
 11
978.894476
 21
804.800090
  0
LINE
  8
OBRYS
 10
978.894476
 20
804.800090
 11
978.420410
 21
804.425033
  0
LINE
  8
OBRYS
 10
978.420410
 20
804.425033
 11
978.109514
 21
804.000164
  0
LINE
  8
OBRYS
 10
978.109514
 20
804.000164
 11
977.972990
 21
803.540795
  0
LINE
  8
OBRYS
 10
983.079763
 20
820.542820
 11
978.097695
 21
820.119742
  0
ARC
  8
OBRYS
 10
863.273358
 20
813.652251
 40
69.852880
 50
174.338908
 51
186.666672
  0
LINE
  8
OBRYS
 10
793.761165
 20
820.542820
 11
798.743234
 21
820.119742
  0
LINE
  8
OBRYS
 10
793.892799
 20
805.542820
 11
794.834164
 21
805.568441
  0
LINE
  8
OBRYS
 10
794.834164
 20
805.568441
 11
795.741604
 21
805.503043
  0
LINE
  8
OBRYS
 10
795.741604
 20
805.503043
 11
796.582417
 21
805.348986
  0
LINE
  8
OBRYS
 10
796.582417
 20
805.348986
 11
797.326303
 21
805.111819
  0
LINE
  8
OBRYS
 10
797.326303
 20
805.111819
 11
797.946453
 21
804.800090
  0
LINE
  8
OBRYS
 10
797.946453
 20
804.800090
 11
798.420518
 21
804.425033
  0
LINE
  8
OBRYS
 10
798.420518
 20
804.425033
 11
798.731415
 21
804.000164
  0
LINE
  8
OBRYS
 10
798.731415
 20
804.000164
 11
798.867939
 21
803.540795
  0
ARC
  8
OBRYS
 10
875.614359
 20
927.504344
 40
10.000000
 50
150.000000
 51
175.000000
  0
LINE
  8
OBRYS
 10
865.652412
 20
928.375902
 11
870.633386
 21
927.940123
  0
LINE
  8
OBRYS
 10
866.954105
 20
932.504344
 11
875.614359
 21
932.504344
  0
ARC
  8
OBRYS
 10
901.226569
 20
927.504344
 40
10.000000
 50
5.000000
 51
30.000000
  0
LINE
  8
OBRYS
 10
911.188516
 20
928.375902
 11
906.207543
 21
927.940123
  0
LINE
  8
OBRYS
 10
901.226569
 20
932.504344
 11
909.886823
 21
932.504344
  0
ARC
  8
OBRYS
 10
888.420464
 20
812.504344
 40
95.000000
 50
4.853917
 51
14.814809
  0
LINE
  8
OBRYS
 10
980.262411
 20
836.795429
 11
975.428624
 21
835.516951
  0
ARC
  8
OBRYS
 10
888.420464
 20
812.504344
 40
95.000000
 50
165.185191
 51
175.146083
  0
LINE
  8
OBRYS
 10
796.578518
 20
836.795429
 11
801.412304
 21
835.516951
  0
ARC
  8
OBRYS
 10
993.822463
 20
858.498026
 40
10.000000
 50
305.000000
 51
23.574744
  0
LINE
  8
OBRYS
 10
999.558227
 20
850.306505
 11
996.690345
 21
854.402265
  0
LINE
  8
OBRYS
 10
1002.987854
 20
862.497476
 11
998.405158
 21
860.497751
  0
ARC
  8
OBRYS
 10
888.420464
 20
812.504344
 40
95.000000
 50
45.185191
 51
74.814809
  0
LINE
  8
OBRYS
 10
955.378135
 20
879.896260
 11
951.854047
 21
876.349317
  0
LINE
  8
OBRYS
 10
913.304741
 20
904.187346
 11
911.995042
 21
899.361925
  0
LINE
  8
OBRYS
 10
955.378135
 20
879.896260
 11
957.491226
 21
875.364722
  0
ARC
  8
OBRYS
 10
888.420464
 20
812.504344
 40
125.000000
 50
143.574744
 51
156.425256
  0
LINE
  8
OBRYS
 10
787.841447
 20
886.726048
 11
791.864608
 21
883.757180
  0
LINE
  8
OBRYS
 10
773.853075
 20
862.497476
 11
778.435770
 21
860.497751
  0
ARC
  8
OBRYS
 10
980.953160
 20
880.788312
 40
10.000000
 50
36.425256
 51
115.000000
  0
LINE
  8
OBRYS
 10
988.999482
 20
886.726048
 11
984.976321
 21
883.757180
  0
LINE
  8
OBRYS
 10
976.726978
 20
889.851389
 11
978.840069
 21
885.319850
  0
LINE
  8
OBRYS
 10
980.262411
 20
836.795429
 11
977.394529
 21
840.891190
  0
LINE
  8
OBRYS
 10
821.462794
 20
879.896260
 11
824.986882
 21
876.349317
  0
LINE
  8
OBRYS
 10
821.462794
 20
879.896260
 11
819.349703
 21
875.364722
  0
LINE
  8
OBRYS
 10
911.188516
 20
928.375902
 11
913.304741
 21
904.187346
  0
LINE
  8
OBRYS
 10
913.304741
 20
904.187346
 11
908.323767
 21
903.751567
  0
LINE
  8
OBRYS
 10
863.536188
 20
904.187346
 11
868.517161
 21
903.751567
  0
LINE
  8
OBRYS
 10
863.536188
 20
904.187346
 11
864.845887
 21
899.361925
  0
ARC
  8
OBRYS
 10
888.420464
 20
812.504344
 40
125.000000
 50
23.574744
 51
36.425256
  0
LINE
  8
OBRYS
 10
863.536188
 20
904.187346
 11
865.652412
 21
928.375902
  0
LINE
  8
OBRYS
 10
800.113951
 20
889.851389
 11
821.462794
 21
879.896260
  0
LINE
  8
OBRYS
 10
800.113951
 20
889.851389
 11
798.000860
 21
885.319850
  0
ARC
  8
OBRYS
 10
795.887769
 20
880.788312
 40
10.000000
 50
65.000000
 51
143.574744
  0
ARC
  8
OBRYS
 10
783.018466
 20
858.498026
 40
10.000000
 50
156.425256
 51
235.000000
  0
LINE
  8
OBRYS
 10
777.282702
 20
850.306505
 11
780.150584
 21
854.402265
  0
LINE
  8
OBRYS
 10
796.578518
 20
836.795429
 11
777.282702
 21
850.306505
  0
LINE
  8
OBRYS
 10
796.578518
 20
836.795429
 11
799.446400
 21
840.891190
  0
LINE
  8
OBRYS
 10
955.378135
 20
879.896260
 11
976.726978
 21
889.851389
  0
ARC
  8
OBRYS
 10
888.420464
 20
812.504344
 40
95.000000
 50
105.185191
 51
134.814809
  0
LINE
  8
OBRYS
 10
999.558227
 20
850.306505
 11
980.262411
 21
836.795429
  0
LINE
  8
OBRYS
 10
1018.754474
 20
820.542820
 11
1018.754474
 21
805.542820
  0
LINE
  8
OBRYS
 10
1018.754474
 20
805.542820
 11
982.948130
 21
805.542820
  0
LINE
  8
OBRYS
 10
983.079763
 20
820.542820
 11
1018.754474
 21
820.542820
  0
LINE
  8
OBRYS
 10
758.086454
 20
820.542820
 11
758.086454
 21
805.542820
  0
LINE
  8
OBRYS
 10
758.086454
 20
820.542820
 11
793.761165
 21
820.542820
  0
LINE
  8
OBRYS
 10
793.892799
 20
805.542820
 11
758.086454
 21
805.542820
  0
ARC
  8
OBRYS
 10
888.420464
 20
815.004344
 40
95.000000
 50
345.185191
 51
354.284151
  0
LINE
  8
OBRYS
 10
980.262411
 20
790.713259
 11
979.388303
 21
790.846116
  0
LINE
  8
OBRYS
 10
979.388303
 20
790.846116
 11
978.542541
 21
790.893592
  0
LINE
  8
OBRYS
 10
978.542541
 20
790.893592
 11
977.752553
 21
790.854148
  0
LINE
  8
OBRYS
 10
977.752553
 20
790.854148
 11
977.043958
 21
790.729062
  0
LINE
  8
OBRYS
 10
977.043958
 20
790.729062
 11
976.439733
 21
790.522391
  0
LINE
  8
OBRYS
 10
976.439733
 20
790.522391
 11
975.959474
 21
790.240838
  0
LINE
  8
OBRYS
 10
975.959474
 20
790.240838
 11
975.618755
 21
789.893532
  0
LINE
  8
OBRYS
 10
975.618755
 20
789.893532
 11
975.428624
 21
789.491737
  0
ARC
  8
OBRYS
 10
888.420464
 20
815.004344
 40
95.000000
 50
185.715849
 51
194.814809
  0
LINE
  8
OBRYS
 10
796.578518
 20
790.713259
 11
797.452626
 21
790.846116
  0
LINE
  8
OBRYS
 10
797.452626
 20
790.846116
 11
798.298387
 21
790.893592
  0
LINE
  8
OBRYS
 10
798.298387
 20
790.893592
 11
799.088375
 21
790.854148
  0
LINE
  8
OBRYS
 10
799.088375
 20
790.854148
 11
799.796971
 21
790.729062
  0
LINE
  8
OBRYS
 10
799.796971
 20
790.729062
 11
800.401196
 21
790.522391
  0
LINE
  8
OBRYS
 10
800.401196
 20
790.522391
 11
800.881455
 21
790.240838
  0
LINE
  8
OBRYS
 10
800.881455
 20
790.240838
 11
801.222174
 21
789.893532
  0
LINE
  8
OBRYS
 10
801.222174
 20
789.893532
 11
801.412304
 21
789.491737
  0
LINE
  8
OBRYS
 10
784.711704
 20
932.504344
 11
776.807672
 21
904.809405
  0
LINE
  8
OBRYS
 10
776.807672
 20
904.809405
 11
769.735453
 21
876.917505
  0
LINE
  8
OBRYS
 10
769.735453
 20
876.917505
 11
763.495047
 21
848.828643
  0
LINE
  8
OBRYS
 10
763.495047
 20
848.828643
 11
758.086454
 21
820.542820
  0
LINE
  8
OBRYS
 10
866.954105
 20
932.504344
 11
784.711704
 21
932.504344
  0
LINE
  8
OBRYS
 10
728.540042
 20
825.739886
 11
728.430613
 21
824.649040
  0
LINE
  8
OBRYS
 10
728.430613
 20
824.649040
 11
728.471731
 21
823.620062
  0
LINE
  8
OBRYS
 10
728.471731
 20
823.620062
 11
728.629637
 21
822.666316
  0
LINE
  8
OBRYS
 10
728.629637
 20
822.666316
 11
728.872518
 21
821.795891
  0
LINE
  8
OBRYS
 10
728.872518
 20
821.795891
 11
729.171153
 21
821.012608
  0
LINE
  8
OBRYS
 10
729.171153
 20
821.012608
 11
729.499306
 21
820.317003
  0
LINE
  8
OBRYS
 10
729.499306
 20
820.317003
 11
729.833931
 21
819.707222
  0
LINE
  8
OBRYS
 10
729.833931
 20
819.707222
 11
731.161322
 21
817.800362
  0
LINE
  8
OBRYS
 10
731.161322
 20
817.800362
 11
732.740345
 21
816.088895
  0
LINE
  8
OBRYS
 10
732.740345
 20
816.088895
 11
733.588963
 21
815.312153
  0
LINE
  8
OBRYS
 10
733.588963
 20
815.312153
 11
734.460082
 21
814.588035
  0
LINE
  8
OBRYS
 10
734.460082
 20
814.588035
 11
735.342399
 21
813.914868
  0
LINE
  8
OBRYS
 10
735.342399
 20
813.914868
 11
736.225784
 21
813.289868
  0
LINE
  8
OBRYS
 10
736.225784
 20
813.289868
 11
738.811504
 21
811.679121
  0
LINE
  8
OBRYS
 10
738.811504
 20
811.679121
 11
741.455072
 21
810.306969
  0
LINE
  8
OBRYS
 10
741.455072
 20
810.306969
 11
743.211790
 21
809.520417
  0
LINE
  8
OBRYS
 10
743.211790
 20
809.520417
 11
744.946439
 21
808.826029
  0
LINE
  8
OBRYS
 10
744.946439
 20
808.826029
 11
746.651843
 21
808.210987
  0
LINE
  8
OBRYS
 10
746.651843
 20
808.210987
 11
750.512025
 21
807.040354
  0
LINE
  8
OBRYS
 10
750.512025
 20
807.040354
 11
754.320382
 21
806.162913
  0
LINE
  8
OBRYS
 10
754.320382
 20
806.162913
 11
758.086454
 21
805.542820
  0
LINE
  8
OBRYS
 10
758.086454
 20
820.542820
 11
728.540042
 21
825.739886
  0
LINE
  8
OBRYS
 10
1048.300887
 20
825.739886
 11
1048.394272
 21
823.911593
  0
LINE
  8
OBRYS
 10
1048.394272
 20
823.911593
 11
1048.128823
 21
822.338254
  0
LINE
  8
OBRYS
 10
1048.128823
 20
822.338254
 11
1047.842991
 21
821.450541
  0
LINE
  8
OBRYS
 10
1047.842991
 20
821.450541
 11
1047.524044
 21
820.694239
  0
LINE
  8
OBRYS
 10
1047.524044
 20
820.694239
 11
1046.892493
 21
819.511869
  0
LINE
  8
OBRYS
 10
1046.892493
 20
819.511869
 11
1045.562318
 21
817.651474
  0
LINE
  8
OBRYS
 10
1045.562318
 20
817.651474
 11
1044.003968
 21
815.991653
  0
LINE
  8
OBRYS
 10
1044.003968
 20
815.991653
 11
1042.324662
 21
814.541830
  0
LINE
  8
OBRYS
 10
1042.324662
 20
814.541830
 11
1040.615145
 21
813.289868
  0
LINE
  8
OBRYS
 10
1040.615145
 20
813.289868
 11
1039.334998
 21
812.454947
  0
LINE
  8
OBRYS
 10
1039.334998
 20
812.454947
 11
1038.029006
 21
811.678835
  0
LINE
  8
OBRYS
 10
1038.029006
 20
811.678835
 11
1036.709019
 21
810.962945
  0
LINE
  8
OBRYS
 10
1036.709019
 20
810.962945
 11
1035.385258
 21
810.306710
  0
LINE
  8
OBRYS
 10
1035.385258
 20
810.306710
 11
1032.757973
 21
809.162343
  0
LINE
  8
OBRYS
 10
1032.757973
 20
809.162343
 11
1030.189086
 21
808.210987
  0
LINE
  8
OBRYS
 10
1030.189086
 20
808.210987
 11
1026.328302
 21
807.040228
  0
LINE
  8
OBRYS
 10
1026.328302
 20
807.040228
 11
1022.520253
 21
806.162792
  0
LINE
  8
OBRYS
 10
1022.520253
 20
806.162792
 11
1018.754474
 21
805.542820
  0
LINE
  8
OBRYS
 10
1048.300887
 20
825.739886
 11
1018.754474
 21
820.542820
  0
LINE
  8
OBRYS
 10
1018.754474
 20
820.542820
 11
1013.345882
 21
848.828643
  0
LINE
  8
OBRYS
 10
1013.345882
 20
848.828643
 11
1007.105476
 21
876.917505
  0
LINE
  8
OBRYS
 10
1007.105476
 20
876.917505
 11
1000.033257
 21
904.809405
  0
LINE
  8
OBRYS
 10
1000.033257
 20
904.809405
 11
992.129225
 21
932.504344
  0
LINE
  8
OBRYS
 10
992.129225
 20
932.504344
 11
909.886823
 21
932.504344
  0
LINE
  8
OBRYS
 10
728.540042
 20
825.739886
 11
735.530273
 21
861.623386
  0
LINE
  8
OBRYS
 10
735.530273
 20
861.623386
 11
743.827444
 21
897.227400
  0
LINE
  8
OBRYS
 10
743.827444
 20
897.227400
 11
753.420464
 21
932.504344
  0
LINE
  8
OBRYS
 10
753.420579
 20
932.504344
 11
784.711704
 21
932.504344
  0
LINE
  8
OBRYS
 10
1023.420464
 20
932.504344
 11
1033.013485
 21
897.227400
  0
LINE
  8
OBRYS
 10
1033.013485
 20
897.227400
 11
1041.310656
 21
861.623386
  0
LINE
  8
OBRYS
 10
1041.310656
 20
861.623386
 11
1048.300887
 21
825.739886
  0
LINE
  8
OBRYS
 10
992.129225
 20
932.504344
 11
1023.420350
 21
932.504344
  0
LINE
  8
OBRYS
 10
753.420464
 20
944.004344
 11
753.420464
 21
932.504344
  0
LINE
  8
OBRYS
 10
783.420464
 20
944.004344
 11
753.420464
 21
944.004344
  0
LINE
  8
OBRYS
 10
783.420464
 20
944.004344
 11
783.420464
 21
932.504344
  0
LINE
  8
OBRYS
 10
993.420464
 20
944.004344
 11
993.420464
 21
932.504344
  0
LINE
  8
OBRYS
 10
1023.420464
 20
944.004344
 11
993.420464
 21
944.004344
  0
LINE
  8
OBRYS
 10
1023.420464
 20
944.004344
 11
1023.420464
 21
932.504344
  0
LINE
  8
OBRYS
 10
993.420464
 20
944.004344
 11
783.420464
 21
944.004344
  0
LINE
  8
OBRYS
 10
783.420464
 20
944.504344
 11
993.420464
 21
944.504344
  0
LINE
  8
OBRYS
 10
993.420464
 20
944.504344
 11
993.420464
 21
944.004344
  0
LINE
  8
OBRYS
 10
783.420464
 20
944.004344
 11
783.420464
 21
944.504344
  0
LINE
  8
OBRYS
 10
753.420464
 20
944.004344
 11
753.920464
 21
944.504344
  0
LINE
  8
OBRYS
 10
753.920464
 20
944.504344
 11
783.420464
 21
944.504344
  0
LINE
  8
OBRYS
 10
993.420464
 20
944.504344
 11
1022.920464
 21
944.504344
  0
LINE
  8
OBRYS
 10
1022.920464
 20
944.504344
 11
1023.420464
 21
944.004344
  0
LINE
  8
OBRYS
 10
1048.300887
 20
825.739886
 11
1048.448845
 21
824.896598
  0
LINE
  8
OBRYS
 10
1048.448845
 20
824.896598
 11
1048.616383
 21
823.936551
  0
LINE
  8
OBRYS
 10
1048.616383
 20
823.936551
 11
1048.803160
 21
822.859687
  0
LINE
  8
OBRYS
 10
1048.803160
 20
822.859687
 11
1049.470267
 21
818.954896
  0
LINE
  8
OBRYS
 10
1049.470267
 20
818.954896
 11
1050.146060
 21
814.900770
  0
LINE
  8
OBRYS
 10
1050.146060
 20
814.900770
 11
1050.759757
 21
811.126917
  0
LINE
  8
OBRYS
 10
1050.759757
 20
811.126917
 11
1051.346187
 21
807.432608
  0
LINE
  8
OBRYS
 10
1051.346187
 20
807.432608
 11
1051.924366
 21
803.699705
  0
LINE
  8
OBRYS
 10
1051.924366
 20
803.699705
 11
1052.493873
 21
799.928198
  0
LINE
  8
OBRYS
 10
1052.493873
 20
799.928198
 11
1053.530493
 21
792.797363
  0
LINE
  8
OBRYS
 10
1053.530493
 20
792.797363
 11
1053.662626
 21
791.861656
  0
LINE
  8
OBRYS
 10
1053.662626
 20
791.861656
 11
1053.793919
 21
790.925511
  0
LINE
  8
OBRYS
 10
1053.793919
 20
790.925511
 11
1053.924371
 21
789.988927
  0
LINE
  8
OBRYS
 10
1053.924371
 20
789.988927
 11
1054.053981
 21
789.051906
  0
LINE
  8
OBRYS
 10
1054.053981
 20
789.051906
 11
1054.182747
 21
788.114447
  0
LINE
  8
OBRYS
 10
1054.182747
 20
788.114447
 11
1054.310668
 21
787.176552
  0
LINE
  8
OBRYS
 10
1054.310668
 20
787.176552
 11
1054.483543
 21
785.898403
  0
LINE
  8
OBRYS
 10
1054.483543
 20
785.898403
 11
1054.612215
 21
784.938906
  0
LINE
  8
OBRYS
 10
1054.612215
 20
784.938906
 11
1054.697612
 21
784.298187
  0
LINE
  8
OBRYS
 10
1054.697612
 20
784.298187
 11
1054.740351
 21
783.976329
  0
LINE
  8
OBRYS
 10
1054.740351
 20
783.976329
 11
1054.862996
 21
783.048233
  0
LINE
  8
OBRYS
 10
1054.862996
 20
783.048233
 11
1055.019049
 21
781.857533
  0
LINE
  8
OBRYS
 10
1055.019049
 20
781.857533
 11
1055.207564
 21
780.404108
  0
LINE
  8
OBRYS
 10
1055.207564
 20
780.404108
 11
1055.361875
 21
779.201772
  0
LINE
  8
OBRYS
 10
1055.361875
 20
779.201772
 11
1055.489769
 21
778.196408
  0
LINE
  8
OBRYS
 10
1055.489769
 20
778.196408
 11
1055.591845
 21
777.388096
  0
LINE
  8
OBRYS
 10
1055.591845
 20
777.388096
 11
1055.668585
 21
776.776895
  0
LINE
  8
OBRYS
 10
1055.668585
 20
776.776895
 11
1055.883496
 21
775.048745
  0
LINE
  8
OBRYS
 10
1055.883496
 20
775.048745
 11
1056.047092
 21
773.716465
  0
LINE
  8
OBRYS
 10
1056.047092
 20
773.716465
 11
1055.983635
 21
772.767876
  0
LINE
  8
OBRYS
 10
1055.983635
 20
772.767876
 11
1055.530309
 21
771.748124
  0
LINE
  8
OBRYS
 10
1055.530309
 20
771.748124
 11
1054.651032
 21
770.715471
  0
LINE
  8
OBRYS
 10
1054.651032
 20
770.715471
 11
1053.362634
 21
769.740859
  0
LINE
  8
OBRYS
 10
1053.362634
 20
769.740859
 11
1051.740122
 21
768.893745
  0
LINE
  8
OBRYS
 10
1051.740122
 20
768.893745
 11
1049.903200
 21
768.226530
  0
LINE
  8
OBRYS
 10
1049.903200
 20
768.226530
 11
1047.988632
 21
767.764391
  0
LINE
  8
OBRYS
 10
1047.988632
 20
767.764391
 11
1046.120826
 21
767.504344
  0
LINE
  8
OBRYS
 10
1046.120826
 20
767.504344
 11
1045.731206
 21
768.680950
  0
LINE
  8
OBRYS
 10
1045.731206
 20
768.680950
 11
1044.718743
 21
770.096907
  0
LINE
  8
OBRYS
 10
1044.718743
 20
770.096907
 11
1043.463490
 21
771.354366
  0
LINE
  8
OBRYS
 10
1043.463490
 20
771.354366
 11
1041.626227
 21
773.061128
  0
LINE
  8
OBRYS
 10
1041.626227
 20
773.061128
 11
1040.339536
 21
774.399885
  0
LINE
  8
OBRYS
 10
1040.339536
 20
774.399885
 11
1039.992744
 21
774.854638
  0
LINE
  8
OBRYS
 10
1039.992744
 20
774.854638
 11
1039.497111
 21
775.607908
  0
LINE
  8
OBRYS
 10
1039.497111
 20
775.607908
 11
1038.655982
 21
776.909316
  0
LINE
  8
OBRYS
 10
1038.655982
 20
776.909316
 11
1038.033011
 21
777.876876
  0
LINE
  8
OBRYS
 10
1038.033011
 20
777.876876
 11
1037.457411
 21
778.768022
  0
LINE
  8
OBRYS
 10
1037.457411
 20
778.768022
 11
1032.262826
 21
786.685437
  0
LINE
  8
OBRYS
 10
1032.262826
 20
786.685437
 11
1030.666359
 21
789.074772
  0
LINE
  8
OBRYS
 10
1030.666359
 20
789.074772
 11
1029.061878
 21
791.455899
  0
LINE
  8
OBRYS
 10
1029.061878
 20
791.455899
 11
1027.449381
 21
793.828819
  0
LINE
  8
OBRYS
 10
1027.449381
 20
793.828819
 11
1025.828869
 21
796.193531
  0
LINE
  8
OBRYS
 10
1025.828869
 20
796.193531
 11
1024.667728
 21
797.662316
  0
LINE
  8
OBRYS
 10
1024.667728
 20
797.662316
 11
1023.164246
 21
799.287033
  0
LINE
  8
OBRYS
 10
1023.164246
 20
799.287033
 11
1021.696172
 21
800.810358
  0
LINE
  8
OBRYS
 10
1021.696172
 20
800.810358
 11
1019.792004
 21
803.140372
  0
LINE
  8
OBRYS
 10
1019.792004
 20
803.140372
 11
1019.122186
 21
804.354801
  0
LINE
  8
OBRYS
 10
1019.122186
 20
804.354801
 11
1018.754474
 21
805.542820
  0
LINE
  8
OBRYS
 10
720.793837
 20
773.716465
 11
720.957406
 21
775.048535
  0
LINE
  8
OBRYS
 10
720.957406
 20
775.048535
 11
721.196474
 21
776.969415
  0
LINE
  8
OBRYS
 10
721.196474
 20
776.969415
 11
721.438426
 21
778.883277
  0
LINE
  8
OBRYS
 10
721.438426
 20
778.883277
 11
721.785238
 21
781.576330
  0
LINE
  8
OBRYS
 10
721.785238
 20
781.576330
 11
722.050253
 21
783.596314
  0
LINE
  8
OBRYS
 10
722.050253
 20
783.596314
 11
722.136291
 21
784.245328
  0
LINE
  8
OBRYS
 10
722.136291
 20
784.245328
 11
722.270552
 21
785.251664
  0
LINE
  8
OBRYS
 10
722.270552
 20
785.251664
 11
722.500178
 21
786.955027
  0
LINE
  8
OBRYS
 10
722.500178
 20
786.955027
 11
722.674377
 21
788.232713
  0
LINE
  8
OBRYS
 10
722.674377
 20
788.232713
 11
722.836867
 21
789.413571
  0
LINE
  8
OBRYS
 10
722.836867
 20
789.413571
 11
724.347056
 21
799.928198
  0
LINE
  8
OBRYS
 10
724.347056
 20
799.928198
 11
724.830719
 21
803.137390
  0
LINE
  8
OBRYS
 10
724.830719
 20
803.137390
 11
725.323315
 21
806.335497
  0
LINE
  8
OBRYS
 10
725.323315
 20
806.335497
 11
725.824748
 21
809.522501
  0
LINE
  8
OBRYS
 10
725.824748
 20
809.522501
 11
726.334921
 21
812.698382
  0
LINE
  8
OBRYS
 10
726.334921
 20
812.698382
 11
726.674152
 21
814.774842
  0
LINE
  8
OBRYS
 10
726.674152
 20
814.774842
 11
727.078383
 21
817.214083
  0
LINE
  8
OBRYS
 10
727.078383
 20
817.214083
 11
727.468828
 21
819.535393
  0
LINE
  8
OBRYS
 10
727.468828
 20
819.535393
 11
728.040234
 21
822.873946
  0
LINE
  8
OBRYS
 10
728.040234
 20
822.873946
 11
728.307585
 21
824.413086
  0
LINE
  8
OBRYS
 10
728.307585
 20
824.413086
 11
728.540042
 21
825.739886
  0
LINE
  8
OBRYS
 10
758.086454
 20
805.542820
 11
757.881199
 21
804.768752
  0
LINE
  8
OBRYS
 10
757.881199
 20
804.768752
 11
757.532646
 21
803.964555
  0
LINE
  8
OBRYS
 10
757.532646
 20
803.964555
 11
757.040796
 21
803.130231
  0
LINE
  8
OBRYS
 10
757.040796
 20
803.130231
 11
755.653658
 21
801.370088
  0
LINE
  8
OBRYS
 10
755.653658
 20
801.370088
 11
753.907566
 21
799.502712
  0
LINE
  8
OBRYS
 10
753.907566
 20
799.502712
 11
752.198207
 21
797.710648
  0
LINE
  8
OBRYS
 10
752.198207
 20
797.710648
 11
750.792013
 21
795.873635
  0
LINE
  8
OBRYS
 10
750.792013
 20
795.873635
 11
749.525283
 21
794.024889
  0
LINE
  8
OBRYS
 10
749.525283
 20
794.024889
 11
744.578103
 21
786.685437
  0
LINE
  8
OBRYS
 10
744.578103
 20
786.685437
 11
741.041600
 21
781.319440
  0
LINE
  8
OBRYS
 10
741.041600
 20
781.319440
 11
740.581812
 21
780.614237
  0
LINE
  8
OBRYS
 10
740.581812
 20
780.614237
 11
740.122794
 21
779.908453
  0
LINE
  8
OBRYS
 10
740.122794
 20
779.908453
 11
739.664546
 21
779.202086
  0
LINE
  8
OBRYS
 10
739.664546
 20
779.202086
 11
739.207068
 21
778.495137
  0
LINE
  8
OBRYS
 10
739.207068
 20
778.495137
 11
738.750360
 21
777.787607
  0
LINE
  8
OBRYS
 10
738.750360
 20
777.787607
 11
738.294423
 21
777.079495
  0
LINE
  8
OBRYS
 10
738.294423
 20
777.079495
 11
737.662988
 21
776.100074
  0
LINE
  8
OBRYS
 10
737.662988
 20
776.100074
 11
737.189555
 21
775.371325
  0
LINE
  8
OBRYS
 10
737.189555
 20
775.371325
 11
736.874124
 21
774.893249
  0
LINE
  8
OBRYS
 10
736.874124
 20
774.893249
 11
736.716694
 21
774.665846
  0
LINE
  8
OBRYS
 10
736.716694
 20
774.665846
 11
736.170633
 21
774.026960
  0
LINE
  8
OBRYS
 10
736.170633
 20
774.026960
 11
735.402681
 21
773.242822
  0
LINE
  8
OBRYS
 10
735.402681
 20
773.242822
 11
734.412838
 21
772.313432
  0
LINE
  8
OBRYS
 10
734.412838
 20
772.313432
 11
733.592651
 21
771.556965
  0
LINE
  8
OBRYS
 10
733.592651
 20
771.556965
 11
732.917704
 21
770.912954
  0
LINE
  8
OBRYS
 10
732.917704
 20
770.912954
 11
732.387995
 21
770.381401
  0
LINE
  8
OBRYS
 10
732.387995
 20
770.381401
 11
732.003525
 21
769.962304
  0
LINE
  8
OBRYS
 10
732.003525
 20
769.962304
 11
731.109749
 21
768.681165
  0
LINE
  8
OBRYS
 10
731.109749
 20
768.681165
 11
730.720103
 21
767.504344
  0
LINE
  8
OBRYS
 10
720.793837
 20
773.716465
 11
720.857294
 21
772.767876
  0
LINE
  8
OBRYS
 10
720.857294
 20
772.767876
 11
721.310620
 21
771.748124
  0
LINE
  8
OBRYS
 10
721.310620
 20
771.748124
 11
722.189896
 21
770.715471
  0
LINE
  8
OBRYS
 10
722.189896
 20
770.715471
 11
723.478294
 21
769.740859
  0
LINE
  8
OBRYS
 10
723.478294
 20
769.740859
 11
725.100807
 21
768.893745
  0
LINE
  8
OBRYS
 10
725.100807
 20
768.893745
 11
726.937729
 21
768.226530
  0
LINE
  8
OBRYS
 10
726.937729
 20
768.226530
 11
728.852297
 21
767.764391
  0
LINE
  8
OBRYS
 10
728.852297
 20
767.764391
 11
730.720103
 21
767.504344
  0
LINE
  8
OBRYS
 10
882.920464
 20
949.504344
 11
893.920464
 21
949.504344
  0
LINE
  8
OBRYS
 10
1003.708362
 20
767.504344
 11
1046.120826
 21
767.504344
  0
ARC
  8
OBRYS
 10
993.822463
 20
769.010663
 40
10.000000
 50
351.336455
 51
55.000000
  0
LINE
  8
OBRYS
 10
980.262411
 20
790.713259
 11
999.558227
 21
777.202183
  0
ARC
  8
OBRYS
 10
783.018466
 20
769.010663
 40
10.000000
 50
125.000000
 51
188.663545
  0
LINE
  8
OBRYS
 10
730.720103
 20
767.504344
 11
773.132567
 21
767.504344
  0
LINE
  8
OBRYS
 10
777.282702
 20
777.202183
 11
796.578518
 21
790.713259
  0
LINE
  8
OBRYS
 10
796.578518
 20
790.713259
 11
797.353524
 21
789.805979
  0
LINE
  8
OBRYS
 10
797.353524
 20
789.805979
 11
798.080689
 21
788.800382
  0
LINE
  8
OBRYS
 10
798.080689
 20
788.800382
 11
798.715125
 21
787.758541
  0
LINE
  8
OBRYS
 10
798.715125
 20
787.758541
 11
799.217669
 21
786.744770
  0
LINE
  8
OBRYS
 10
799.217669
 20
786.744770
 11
799.557299
 21
785.821648
  0
LINE
  8
OBRYS
 10
799.557299
 20
785.821648
 11
799.713050
 21
785.046160
  0
LINE
  8
OBRYS
 10
799.713050
 20
785.046160
 11
799.675307
 21
784.466176
  0
LINE
  8
OBRYS
 10
799.675307
 20
784.466176
 11
799.446400
 21
784.117499
  0
LINE
  8
OBRYS
 10
777.282702
 20
777.202183
 11
778.057708
 21
776.294904
  0
LINE
  8
OBRYS
 10
778.057708
 20
776.294904
 11
778.784873
 21
775.289306
  0
LINE
  8
OBRYS
 10
778.784873
 20
775.289306
 11
779.419309
 21
774.247465
  0
LINE
  8
OBRYS
 10
779.419309
 20
774.247465
 11
779.921853
 21
773.233694
  0
LINE
  8
OBRYS
 10
779.921853
 20
773.233694
 11
780.261483
 21
772.310573
  0
LINE
  8
OBRYS
 10
780.261483
 20
772.310573
 11
780.417234
 21
771.535084
  0
LINE
  8
OBRYS
 10
780.417234
 20
771.535084
 11
780.379491
 21
770.955100
  0
LINE
  8
OBRYS
 10
780.379491
 20
770.955100
 11
780.150584
 21
770.606423
  0
LINE
  8
OBRYS
 10
980.262411
 20
790.713259
 11
979.487405
 21
789.805979
  0
LINE
  8
OBRYS
 10
979.487405
 20
789.805979
 11
978.760240
 21
788.800382
  0
LINE
  8
OBRYS
 10
978.760240
 20
788.800382
 11
978.125804
 21
787.758541
  0
LINE
  8
OBRYS
 10
978.125804
 20
787.758541
 11
977.623260
 21
786.744770
  0
LINE
  8
OBRYS
 10
977.623260
 20
786.744770
 11
977.283630
 21
785.821648
  0
LINE
  8
OBRYS
 10
977.283630
 20
785.821648
 11
977.127879
 21
785.046160
  0
LINE
  8
OBRYS
 10
977.127879
 20
785.046160
 11
977.165622
 21
784.466176
  0
LINE
  8
OBRYS
 10
977.165622
 20
784.466176
 11
977.394529
 21
784.117499
  0
LINE
  8
OBRYS
 10
999.558227
 20
777.202183
 11
998.783221
 21
776.294904
  0
LINE
  8
OBRYS
 10
998.783221
 20
776.294904
 11
998.056056
 21
775.289306
  0
LINE
  8
OBRYS
 10
998.056056
 20
775.289306
 11
997.421620
 21
774.247465
  0
LINE
  8
OBRYS
 10
997.421620
 20
774.247465
 11
996.919076
 21
773.233694
  0
LINE
  8
OBRYS
 10
996.919076
 20
773.233694
 11
996.579446
 21
772.310573
  0
LINE
  8
OBRYS
 10
996.579446
 20
772.310573
 11
996.423695
 21
771.535084
  0
LINE
  8
OBRYS
 10
996.423695
 20
771.535084
 11
996.461438
 21
770.955100
  0
LINE
  8
OBRYS
 10
996.461438
 20
770.955100
 11
996.690345
 21
770.606423
  0
ARC
  8
OBRYS
 10
989.568162
 20
737.673282
 40
5.822160
 50
143.703138
 51
187.173041
  0
LINE
  8
OBRYS
 10
978.824600
 20
736.385917
 11
983.791568
 21
736.946290
  0
LINE
  8
OBRYS
 10
978.824600
 20
736.385917
 11
978.255352
 21
737.505985
  0
LINE
  8
OBRYS
 10
978.255352
 20
737.505985
 11
978.162496
 21
737.838009
  0
LINE
  8
OBRYS
 10
978.162496
 20
737.838009
 11
978.113095
 21
738.486681
  0
LINE
  8
OBRYS
 10
978.113095
 20
738.486681
 11
978.163386
 21
738.778484
  0
LINE
  8
OBRYS
 10
978.163386
 20
738.778484
 11
978.350037
 21
739.202160
  0
LINE
  8
OBRYS
 10
978.350037
 20
739.202160
 11
978.686321
 21
739.576334
  0
LINE
  8
OBRYS
 10
978.686321
 20
739.576334
 11
978.840069
 21
739.688838
  0
ARC
  8
OBRYS
 10
989.802324
 20
737.691800
 40
5.996819
 50
143.587140
 51
219.331083
  0
LINE
  8
OBRYS
 10
985.163806
 20
733.891012
 11
985.107733
 21
733.819429
  0
LINE
  8
OBRYS
 10
983.791568
 20
736.946290
 11
984.348935
 21
735.010758
  0
LINE
  8
OBRYS
 10
984.348935
 20
735.010758
 11
985.107733
 21
733.819429
  0
LINE
  8
OBRYS
 10
767.920464
 20
949.504344
 11
778.920464
 21
949.504344
  0
LINE
  8
OBRYS
 10
997.920464
 20
949.504344
 11
1008.920464
 21
949.504344
  0
LINE
  8
OBRYS
 10
893.063228
 20
692.594191
 11
893.047999
 21
692.590548
  0
LINE
  8
OBRYS
 10
893.047999
 20
692.590548
 11
893.079503
 21
692.582858
  0
LINE
  8
OBRYS
 10
893.079503
 20
692.582858
 11
893.187454
 21
692.566573
  0
LINE
  8
OBRYS
 10
893.187454
 20
692.566573
 11
893.612114
 21
692.510386
  0
LINE
  8
OBRYS
 10
893.612114
 20
692.510386
 11
895.817164
 21
692.120613
  0
LINE
  8
OBRYS
 10
895.817164
 20
692.120613
 11
898.061926
 21
691.372091
  0
LINE
  8
OBRYS
 10
898.061926
 20
691.372091
 11
898.966705
 21
690.829353
  0
LINE
  8
OBRYS
 10
898.966705
 20
690.829353
 11
899.518084
 21
690.284473
  0
LINE
  8
OBRYS
 10
899.518084
 20
690.284473
 11
899.685637
 21
690.021301
  0
LINE
  8
OBRYS
 10
899.685637
 20
690.021301
 11
894.839880
 21
688.801387
  0
ARC
  8
OBRYS
 10
889.209295
 20
687.371978
 40
5.809191
 50
14.244487
 51
63.108397
  0
LINE
  8
OBRYS
 10
901.849302
 20
693.258102
 11
902.185023
 21
690.276946
  0
ARC
  8
OBRYS
 10
888.420464
 20
812.504344
 40
123.000000
 50
275.254899
 51
276.425256
  0
LINE
  8
OBRYS
 10
978.824600
 20
736.385917
 11
956.223371
 21
746.925043
  0
LINE
  8
OBRYS
 10
957.491226
 20
749.643967
 11
956.223371
 21
746.925043
  0
LINE
  8
OBRYS
 10
947.323240
 20
744.456838
 11
949.286665
 21
742.188588
  0
ARC
  8
OBRYS
 10
945.357536
 20
746.727511
 40
6.003323
 50
269.647757
 51
310.881177
  0
LINE
  8
OBRYS
 10
945.339173
 20
743.723788
 11
945.320629
 21
740.724302
  0
ARC
  8
OBRYS
 10
945.075536
 20
701.080815
 40
39.644245
 50
89.645777
 51
193.064012
  0
ARC
  8
OBRYS
 10
912.191762
 20
710.065155
 40
18.839442
 50
241.142639
 51
252.278957
  0
ARC
  8
OBRYS
 10
901.289767
 20
698.226695
 40
8.000000
 50
276.425256
 51
310.236854
  0
LINE
  8
OBRYS
 10
951.854047
 20
748.659371
 11
953.968500
 21
746.531205
  0
ARC
  8
OBRYS
 10
888.420464
 20
812.504344
 40
93.000000
 50
310.879875
 51
314.814809
  0
ARC
  8
OBRYS
 10
955.378135
 20
745.112428
 40
2.000000
 50
65.000000
 51
134.814809
  0
LINE
  8
OBRYS
 10
1003.708362
 20
767.504344
 11
1002.787150
 21
767.566068
  0
LINE
  8
OBRYS
 10
1002.787150
 20
767.566068
 11
1001.898034
 21
767.538543
  0
LINE
  8
OBRYS
 10
1001.898034
 20
767.538543
 11
1001.071988
 21
767.422727
  0
LINE
  8
OBRYS
 10
1001.071988
 20
767.422727
 11
1000.337794
 21
767.222654
  0
LINE
  8
OBRYS
 10
1000.337794
 20
767.222654
 11
999.721029
 21
766.945297
  0
LINE
  8
OBRYS
 10
999.721029
 20
766.945297
 11
999.243181
 21
766.600317
  0
LINE
  8
OBRYS
 10
999.243181
 20
766.600317
 11
998.920900
 21
766.199734
  0
LINE
  8
OBRYS
 10
998.920900
 20
766.199734
 11
998.765412
 21
765.757503
  0
LINE
  8
OBRYS
 10
773.132567
 20
767.504344
 11
774.053778
 21
767.566068
  0
LINE
  8
OBRYS
 10
774.053778
 20
767.566068
 11
774.942895
 21
767.538543
  0
LINE
  8
OBRYS
 10
774.942895
 20
767.538543
 11
775.768940
 21
767.422727
  0
LINE
  8
OBRYS
 10
775.768940
 20
767.422727
 11
776.503135
 21
767.222654
  0
LINE
  8
OBRYS
 10
776.503135
 20
767.222654
 11
777.119900
 21
766.945297
  0
LINE
  8
OBRYS
 10
777.119900
 20
766.945297
 11
777.597747
 21
766.600317
  0
LINE
  8
OBRYS
 10
777.597747
 20
766.600317
 11
777.920029
 21
766.199734
  0
LINE
  8
OBRYS
 10
777.920029
 20
766.199734
 11
778.075516
 21
765.757503
  0
ARC
  8
OBRYS
 10
889.714347
 20
687.511041
 40
5.285460
 50
13.772434
 51
14.130508
  0
LINE
  8
OBRYS
 10
894.847844
 20
688.769330
 11
894.734257
 21
688.741488
  0
ARC
  8
OBRYS
 10
889.714347
 20
687.511041
 40
5.168510
 50
13.772434
 51
76.095248
  0
LINE
  8
OBRYS
 10
890.968363
 20
692.531396
 11
890.956384
 21
692.528096
  0
ARC
  8
OBRYS
 10
889.714347
 20
687.511041
 40
10.282414
 50
13.772434
 51
14.130508
  0
LINE
  8
OBRYS
 10
899.701130
 20
689.958936
 11
894.847844
 21
688.769330
  0
ARC
  8
OBRYS
 10
945.075536
 20
701.080815
 40
46.717586
 50
193.772434
 51
39.276543
  0
LINE
  8
OBRYS
 10
981.239593
 20
730.656037
 11
985.107733
 21
733.819429
  0
ARC
  8
OBRYS
 10
945.075536
 20
701.080815
 40
51.714540
 50
193.772434
 51
39.276543
  0
ARC
  8
OBRYS
 10
989.754286
 20
737.618623
 40
10.998982
 50
186.434917
 51
219.273355
  0
ARC
  8
OBRYS
 10
928.903233
 20
820.887818
 40
164.980964
 50
199.980938
 51
204.487400
  0
LINE
  8
OBRYS
 10
773.853075
 20
764.512586
 11
774.667108
 21
764.779882
  0
LINE
  8
OBRYS
 10
774.667108
 20
764.779882
 11
775.455918
 21
764.976886
  0
LINE
  8
OBRYS
 10
775.455918
 20
764.976886
 11
776.195066
 21
765.097491
  0
LINE
  8
OBRYS
 10
776.195066
 20
765.097491
 11
776.861648
 21
765.137963
  0
LINE
  8
OBRYS
 10
776.861648
 20
765.137963
 11
777.435011
 21
765.097045
  0
LINE
  8
OBRYS
 10
777.435011
 20
765.097045
 11
777.897390
 21
764.976007
  0
LINE
  8
OBRYS
 10
777.897390
 20
764.976007
 11
778.234457
 21
764.778599
  0
LINE
  8
OBRYS
 10
778.234457
 20
764.778599
 11
778.435770
 21
764.510937
  0
LINE
  8
OBRYS
 10
778.761903
 20
752.504344
 11
783.148246
 21
754.904344
  0
LINE
  8
OBRYS
 10
1002.987854
 20
764.512586
 11
1000.748295
 21
758.695984
  0
LINE
  8
OBRYS
 10
1000.748295
 20
758.695984
 11
998.079025
 21
752.504344
  0
LINE
  8
OBRYS
 10
998.079025
 20
752.504344
 11
993.692683
 21
754.904344
  0
LINE
  8
OBRYS
 10
1002.987854
 20
764.512586
 11
1002.173821
 21
764.779882
  0
LINE
  8
OBRYS
 10
1002.173821
 20
764.779882
 11
1001.385010
 21
764.976886
  0
LINE
  8
OBRYS
 10
1001.385010
 20
764.976886
 11
1000.645863
 21
765.097491
  0
LINE
  8
OBRYS
 10
1000.645863
 20
765.097491
 11
999.979281
 21
765.137963
  0
LINE
  8
OBRYS
 10
999.979281
 20
765.137963
 11
999.405918
 21
765.097045
  0
LINE
  8
OBRYS
 10
999.405918
 20
765.097045
 11
998.943539
 21
764.976007
  0
LINE
  8
OBRYS
 10
998.943539
 20
764.976007
 11
998.606471
 21
764.778599
  0
LINE
  8
OBRYS
 10
998.606471
 20
764.778599
 11
998.405158
 21
764.510937
  0
LINE
  8
OBRYS
 10
1003.708362
 20
767.504344
 11
1002.987854
 21
764.512586
  0
LINE
  8
OBRYS
 10
773.853075
 20
764.512586
 11
773.132567
 21
767.504344
  0
LINE
  8
OBRYS
 10
985.181567
 20
733.913871
 11
985.163806
 21
733.891012
  0
ARC
  8
OBRYS
 10
945.075536
 20
701.080815
 40
51.831490
 50
193.772434
 51
39.305688
  0
ARC
  8
OBRYS
 10
989.820921
 20
737.715268
 40
5.997852
 50
143.596617
 51
219.330527
  0
LINE
  8
OBRYS
 10
940.920464
 20
946.004344
 11
965.920464
 21
946.004344
  0
ARC
  8
OBRYS
 10
989.822457
 20
737.712825
 40
1.000538
 50
143.576478
 51
219.290629
  0
LINE
  8
OBRYS
 10
989.048097
 20
737.079230
 11
985.181567
 21
733.913871
  0
LINE
  8
OBRYS
 10
989.017374
 20
738.306893
 11
984.993498
 21
741.274791
  0
LINE
  8
OBRYS
 10
778.761903
 20
752.504344
 11
723.458344
 21
752.504344
  0
LINE
  8
OBRYS
 10
730.720103
 20
767.504344
 11
730.599326
 21
767.111844
  0
LINE
  8
OBRYS
 10
730.599326
 20
767.111844
 11
730.360496
 21
766.690709
  0
LINE
  8
OBRYS
 10
730.360496
 20
766.690709
 11
729.087986
 21
765.371266
  0
LINE
  8
OBRYS
 10
729.087986
 20
765.371266
 11
727.443184
 21
764.023939
  0
LINE
  8
OBRYS
 10
727.443184
 20
764.023939
 11
726.429497
 21
763.075566
  0
LINE
  8
OBRYS
 10
726.429497
 20
763.075566
 11
726.072990
 21
762.637858
  0
LINE
  8
OBRYS
 10
726.072990
 20
762.637858
 11
725.932321
 21
762.428387
  0
LINE
  8
OBRYS
 10
725.932321
 20
762.428387
 11
725.871382
 21
762.326026
  0
LINE
  8
OBRYS
 10
725.871382
 20
762.326026
 11
725.843262
 21
762.275443
  0
LINE
  8
OBRYS
 10
725.843262
 20
762.275443
 11
725.829789
 21
762.250301
  0
LINE
  8
OBRYS
 10
725.829789
 20
762.250301
 11
725.823200
 21
762.237768
  0
LINE
  8
OBRYS
 10
725.823200
 20
762.237768
 11
725.819941
 21
762.231510
  0
LINE
  8
OBRYS
 10
725.819941
 20
762.231510
 11
725.818322
 21
762.228384
  0
LINE
  8
OBRYS
 10
725.818322
 20
762.228384
 11
725.817514
 21
762.226822
  0
LINE
  8
OBRYS
 10
725.817514
 20
762.226822
 11
725.817111
 21
762.226040
  0
LINE
  8
OBRYS
 10
725.817111
 20
762.226040
 11
725.816909
 21
762.225650
  0
LINE
  8
OBRYS
 10
725.816909
 20
762.225650
 11
725.816808
 21
762.225455
  0
LINE
  8
OBRYS
 10
725.816808
 20
762.225455
 11
725.816758
 21
762.225357
  0
LINE
  8
OBRYS
 10
725.816758
 20
762.225357
 11
725.816733
 21
762.225308
  0
LINE
  8
OBRYS
 10
725.816733
 20
762.225308
 11
725.816720
 21
762.225284
  0
LINE
  8
OBRYS
 10
725.816720
 20
762.225284
 11
725.816714
 21
762.225272
  0
LINE
  8
OBRYS
 10
725.816714
 20
762.225272
 11
725.697673
 21
761.917658
  0
LINE
  8
OBRYS
 10
725.697673
 20
761.917658
 11
725.492509
 21
761.286695
  0
LINE
  8
OBRYS
 10
725.492509
 20
761.286695
 11
725.201216
 21
760.326021
  0
LINE
  8
OBRYS
 10
725.201216
 20
760.326021
 11
724.076645
 21
756.023522
  0
LINE
  8
OBRYS
 10
724.076645
 20
756.023522
 11
723.458344
 21
752.504344
  0
LINE
  8
OBRYS
 10
1053.382585
 20
752.504344
 11
1053.230292
 21
753.605095
  0
LINE
  8
OBRYS
 10
1053.230292
 20
753.605095
 11
1053.022263
 21
754.794869
  0
LINE
  8
OBRYS
 10
1053.022263
 20
754.794869
 11
1052.758501
 21
756.071163
  0
LINE
  8
OBRYS
 10
1052.758501
 20
756.071163
 11
1052.439003
 21
757.430490
  0
LINE
  8
OBRYS
 10
1052.439003
 20
757.430490
 11
1052.063771
 21
758.868220
  0
LINE
  8
OBRYS
 10
1052.063771
 20
758.868220
 11
1051.632804
 21
760.378412
  0
LINE
  8
OBRYS
 10
1051.632804
 20
760.378412
 11
1051.196220
 21
761.785915
  0
LINE
  8
OBRYS
 10
1051.196220
 20
761.785915
 11
1051.089640
 21
762.090946
  0
LINE
  8
OBRYS
 10
1051.089640
 20
762.090946
 11
1051.019690
 21
762.258546
  0
LINE
  8
OBRYS
 10
1051.019690
 20
762.258546
 11
1050.423035
 21
763.070485
  0
LINE
  8
OBRYS
 10
1050.423035
 20
763.070485
 11
1049.395952
 21
764.036327
  0
LINE
  8
OBRYS
 10
1049.395952
 20
764.036327
 11
1048.328019
 21
764.900643
  0
LINE
  8
OBRYS
 10
1048.328019
 20
764.900643
 11
1047.311959
 21
765.762151
  0
LINE
  8
OBRYS
 10
1047.311959
 20
765.762151
 11
1046.480507
 21
766.690246
  0
LINE
  8
OBRYS
 10
1046.480507
 20
766.690246
 11
1046.241695
 21
767.111277
  0
LINE
  8
OBRYS
 10
1046.241695
 20
767.111277
 11
1046.120826
 21
767.504344
  0
LINE
  8
OBRYS
 10
1053.382585
 20
752.504344
 11
998.079025
 21
752.504344
  0
ARC
  8
OBRYS
 10
872.723806
 20
693.709784
 40
18.270832
 50
340.343673
 51
356.291737
  0
LINE
  8
OBRYS
 10
894.734257
 20
688.741488
 11
889.929945
 21
687.563887
  0
LINE
  8
OBRYS
 10
889.890518
 20
687.512989
 11
889.899294
 21
687.524319
  0
LINE
  8
OBRYS
 10
889.899294
 20
687.524319
 11
889.929945
 21
687.563887
  0
ARC
  8
OBRYS
 10
888.420464
 20
812.504344
 40
125.000000
 50
263.574744
 51
270.673839
  0
LINE
  8
OBRYS
 10
874.432092
 20
688.289508
 11
874.991627
 21
693.258102
  0
LINE
  8
OBRYS
 10
974.379232
 20
637.504344
 11
974.379232
 21
642.504344
  0
LINE
  8
OBRYS
 10
974.379232
 20
642.504344
 11
1056.904338
 21
642.504344
  0
LINE
  8
OBRYS
 10
1056.904338
 20
637.504344
 11
1056.904338
 21
642.504344
  0
ARC
  8
OBRYS
 10
1056.904642
 20
631.794531
 40
10.709813
 50
81.863273
 51
90.001630
  0
LINE
  8
OBRYS
 10
1057.713182
 20
637.450437
 11
1058.420464
 21
642.396530
  0
LINE
  8
OBRYS
 10
719.936591
 20
642.504344
 11
802.461696
 21
642.504344
  0
LINE
  8
OBRYS
 10
802.461696
 20
642.504344
 11
802.461696
 21
637.504344
  0
LINE
  8
OBRYS
 10
719.936591
 20
642.504344
 11
719.936591
 21
637.504344
  0
ARC
  8
OBRYS
 10
719.936469
 20
631.791962
 40
10.712382
 50
89.999347
 51
98.135750
  0
LINE
  8
OBRYS
 10
718.420464
 20
642.396530
 11
719.127747
 21
637.450437
  0
ARC
  8
OBRYS
 10
802.538244
 20
632.426616
 40
10.078019
 50
0.441905
 51
90.435192
  0
LINE
  8
OBRYS
 10
812.615963
 20
632.504344
 11
807.691924
 21
632.504344
  0
LINE
  8
OBRYS
 10
969.149005
 20
632.504344
 11
964.224966
 21
632.504344
  0
ARC
  8
OBRYS
 10
974.302685
 20
632.426616
 40
10.078019
 50
89.564808
 51
179.558095
  0
ARC
  8
OBRYS
 10
888.420464
 20
812.504344
 40
125.000000
 50
323.588558
 51
331.314598
  0
ARC
  8
OBRYS
 10
888.420464
 20
812.504344
 40
125.000000
 50
208.685402
 51
216.425256
  0
LINE
  8
OBRYS
 10
787.841447
 20
738.282640
 11
791.864608
 21
741.251509
  0
LINE
  8
OBRYS
 10
865.589215
 20
697.355138
 11
863.536188
 21
720.821343
  0
LINE
  8
OBRYS
 10
863.536188
 20
720.821343
 11
868.517161
 21
721.257121
  0
LINE
  8
OBRYS
 10
865.589215
 20
697.355138
 11
870.570188
 21
697.790916
  0
LINE
  8
OBRYS
 10
821.462794
 20
745.112428
 11
819.349703
 21
749.643967
  0
LINE
  8
OBRYS
 10
821.462794
 20
745.112428
 11
824.986882
 21
748.659371
  0
LINE
  8
OBRYS
 10
821.462794
 20
745.112428
 11
800.113951
 21
735.157299
  0
LINE
  8
OBRYS
 10
800.113951
 20
735.157299
 11
798.000860
 21
739.688838
  0
ARC
  8
OBRYS
 10
875.551162
 20
698.226695
 40
10.000000
 50
185.000000
 51
263.574744
  0
ARC
  8
OBRYS
 10
795.887769
 20
744.220377
 40
10.000000
 50
216.425256
 51
295.000000
  0
ARC
  8
OBRYS
 10
888.420464
 20
812.504344
 40
95.000000
 50
225.185191
 51
254.814809
  0
LINE
  8
OBRYS
 10
863.536188
 20
720.821343
 11
864.845887
 21
725.646764
  0
ARC
  8
OBRYS
 10
945.075536
 20
701.080815
 40
56.828444
 50
193.812813
 51
39.305688
  0
LINE
  8
OBRYS
 10
1058.420464
 20
642.396530
 11
1059.462005
 21
641.901419
  0
LINE
  8
OBRYS
 10
1059.462005
 20
641.901419
 11
1060.855941
 21
640.620695
  0
LINE
  8
OBRYS
 10
1060.855941
 20
640.620695
 11
1062.317666
 21
638.468805
  0
LINE
  8
OBRYS
 10
1062.317666
 20
638.468805
 11
1062.957231
 21
637.383997
  0
LINE
  8
OBRYS
 10
1062.957231
 20
637.383997
 11
1063.159630
 21
637.147553
  0
LINE
  8
OBRYS
 10
1063.159630
 20
637.147553
 11
1063.239393
 21
637.110603
  0
LINE
  8
OBRYS
 10
1063.239393
 20
637.110603
 11
1063.353513
 21
637.201223
  0
LINE
  8
OBRYS
 10
1063.353513
 20
637.201223
 11
1063.392590
 21
637.337256
  0
LINE
  8
OBRYS
 10
1063.392590
 20
637.337256
 11
1063.420464
 21
637.714398
  0
LINE
  8
OBRYS
 10
1063.420464
 20
637.714398
 11
1063.420464
 21
634.885241
  0
LINE
  8
OBRYS
 10
713.420464
 20
637.714398
 11
713.456203
 21
637.299394
  0
LINE
  8
OBRYS
 10
713.456203
 20
637.299394
 11
713.553888
 21
637.118778
  0
LINE
  8
OBRYS
 10
713.553888
 20
637.118778
 11
713.636951
 21
637.120788
  0
LINE
  8
OBRYS
 10
713.636951
 20
637.120788
 11
713.826464
 21
637.304094
  0
LINE
  8
OBRYS
 10
713.826464
 20
637.304094
 11
713.955473
 21
637.492958
  0
LINE
  8
OBRYS
 10
713.955473
 20
637.492958
 11
714.520692
 21
638.464349
  0
LINE
  8
OBRYS
 10
714.520692
 20
638.464349
 11
715.700121
 21
640.267721
  0
LINE
  8
OBRYS
 10
715.700121
 20
640.267721
 11
716.950512
 21
641.584290
  0
LINE
  8
OBRYS
 10
716.950512
 20
641.584290
 11
717.978750
 21
642.234434
  0
LINE
  8
OBRYS
 10
717.978750
 20
642.234434
 11
718.420464
 21
642.396530
  0
LINE
  8
OBRYS
 10
713.420464
 20
634.885241
 11
713.420464
 21
637.714398
  0
LINE
  8
OBRYS
 10
1056.047092
 20
773.716465
 11
1056.197766
 21
772.476128
  0
LINE
  8
OBRYS
 10
1056.197766
 20
772.476128
 11
1056.388503
 21
770.887089
  0
LINE
  8
OBRYS
 10
1056.388503
 20
770.887089
 11
1056.540703
 21
769.603409
  0
LINE
  8
OBRYS
 10
1056.540703
 20
769.603409
 11
1056.758684
 21
767.739675
  0
LINE
  8
OBRYS
 10
1056.758684
 20
767.739675
 11
1056.950638
 21
766.072800
  0
LINE
  8
OBRYS
 10
1056.950638
 20
766.072800
 11
1057.023338
 21
765.434982
  0
LINE
  8
OBRYS
 10
1057.023338
 20
765.434982
 11
1057.053988
 21
765.164992
  0
LINE
  8
OBRYS
 10
1057.053988
 20
765.164992
 11
1057.067899
 21
765.042228
  0
LINE
  8
OBRYS
 10
1057.067899
 20
765.042228
 11
1057.202672
 21
763.845819
  0
LINE
  8
OBRYS
 10
1057.202672
 20
763.845819
 11
1057.350201
 21
762.521066
  0
LINE
  8
OBRYS
 10
1057.350201
 20
762.521066
 11
1057.809479
 21
758.289443
  0
LINE
  8
OBRYS
 10
1057.809479
 20
758.289443
 11
1058.357269
 21
753.006857
  0
LINE
  8
OBRYS
 10
1058.357269
 20
753.006857
 11
1053.382585
 21
752.504344
  0
LINE
  8
OBRYS
 10
718.483660
 20
753.006857
 11
718.768248
 21
755.785364
  0
LINE
  8
OBRYS
 10
718.768248
 20
755.785364
 11
719.031151
 21
758.286635
  0
LINE
  8
OBRYS
 10
719.031151
 20
758.286635
 11
719.270280
 21
760.510875
  0
LINE
  8
OBRYS
 10
719.270280
 20
760.510875
 11
719.483779
 21
762.458269
  0
LINE
  8
OBRYS
 10
719.483779
 20
762.458269
 11
719.617840
 21
763.663438
  0
LINE
  8
OBRYS
 10
719.617840
 20
763.663438
 11
719.755497
 21
764.887318
  0
LINE
  8
OBRYS
 10
719.755497
 20
764.887318
 11
719.887118
 21
766.045038
  0
LINE
  8
OBRYS
 10
719.887118
 20
766.045038
 11
720.080439
 21
767.724111
  0
LINE
  8
OBRYS
 10
720.080439
 20
767.724111
 11
720.234005
 21
769.040423
  0
LINE
  8
OBRYS
 10
720.234005
 20
769.040423
 11
720.358184
 21
770.093914
  0
LINE
  8
OBRYS
 10
720.358184
 20
770.093914
 11
720.452139
 21
770.884681
  0
LINE
  8
OBRYS
 10
720.452139
 20
770.884681
 11
720.643151
 21
772.476032
  0
LINE
  8
OBRYS
 10
720.643151
 20
772.476032
 11
720.793837
 21
773.716465
  0
LINE
  8
OBRYS
 10
718.483660
 20
753.006857
 11
723.458344
 21
752.504344
  0
LINE
  8
OBRYS
 10
969.149005
 20
597.504344
 11
964.224966
 21
597.504344
  0
LINE
  8
OBRYS
 10
964.224966
 20
597.504344
 11
964.224966
 21
632.504344
  0
ARC
  8
OBRYS
 10
963.384765
 20
588.163967
 40
5.144246
 50
12.951606
 51
89.602384
  0
ARC
  8
OBRYS
 10
954.264558
 20
597.238697
 40
9.963950
 50
336.766272
 51
1.527731
  0
LINE
  8
OBRYS
 10
812.615963
 20
597.504344
 11
807.691924
 21
597.504344
  0
ARC
  8
OBRYS
 10
821.666230
 20
597.064206
 40
9.060964
 50
177.215752
 51
204.490245
  0
ARC
  8
OBRYS
 10
813.456164
 20
588.163967
 40
5.144246
 50
90.397616
 51
167.048394
  0
LINE
  8
OBRYS
 10
812.615963
 20
632.504344
 11
812.615963
 21
597.504344
  0
LINE
  8
OBRYS
 10
943.670464
 20
954.004344
 11
963.170464
 21
954.004344
  0
LINE
  8
OBRYS
 10
713.420464
 20
587.504344
 11
713.420464
 21
633.798439
  0
LINE
  8
OBRYS
 10
713.590835
 20
587.504344
 11
713.420464
 21
587.504344
  0
LINE
  8
OBRYS
 10
1063.420464
 20
633.798439
 11
1063.420464
 21
587.504344
  0
LINE
  8
OBRYS
 10
1063.420464
 20
587.504344
 11
1063.250094
 21
587.504344
  0
ARC
  8
OBRYS
 10
1713.420464
 20
652.504344
 40
995.000000
 50
174.231892
 51
180.000000
  0
LINE
  8
OBRYS
 10
713.420464
 20
652.504344
 11
718.420464
 21
652.504344
  0
ARC
  8
OBRYS
 10
1713.420464
 20
652.504344
 40
1000.000000
 50
174.231892
 51
180.000000
  0
LINE
  8
OBRYS
 10
812.615963
 20
597.504344
 11
964.224966
 21
597.504344
  0
LINE
  8
OBRYS
 10
718.420464
 20
652.504344
 11
718.420464
 21
642.396530
  0
ARC
  8
OBRYS
 10
63.420464
 20
652.504344
 40
995.000000
 50
0.000000
 51
5.768108
  0
LINE
  8
OBRYS
 10
1058.420464
 20
642.396530
 11
1058.420464
 21
652.504344
  0
LINE
  8
OBRYS
 10
1063.420464
 20
652.504344
 11
1058.420464
 21
652.504344
  0
ARC
  8
OBRYS
 10
63.420464
 20
652.504344
 40
1000.000000
 50
0.000000
 51
5.768108
  0
ARC
  8
OBRYS
 10
963.420464
 20
587.504344
 40
5.000000
 50
0.000000
 51
90.000000
  0
LINE
  8
OBRYS
 10
963.420464
 20
592.504344
 11
963.420464
 21
593.308090
  0
LINE
  8
OBRYS
 10
813.420464
 20
593.308090
 11
813.420464
 21
592.504344
  0
ARC
  8
OBRYS
 10
813.420464
 20
587.504344
 40
5.000000
 50
90.000000
 51
180.000000
  0
LINE
  8
OBRYS
 10
713.420464
 20
637.714398
 11
713.420464
 21
652.504344
  0
LINE
  8
OBRYS
 10
1063.420464
 20
652.504344
 11
1063.420464
 21
637.714398
  0
LINE
  8
OBRYS
 10
963.420464
 20
592.504344
 11
813.420464
 21
592.504344
  0
LINE
  8
OBRYS
 10
713.920464
 20
684.123168
 11
713.920464
 21
700.004344
  0
LINE
  8
OBRYS
 10
710.920464
 20
687.504344
 11
710.920464
 21
697.004344
  0
LINE
  8
OBRYS
 10
710.920464
 20
678.004344
 11
710.920464
 21
687.504344
  0
LINE
  8
OBRYS
 10
1063.420464
 20
597.504344
 11
1063.420464
 21
588.844090
  0
LINE
  8
OBRYS
 10
713.420464
 20
588.844090
 11
713.420464
 21
597.504344
  0
LINE
  8
OBRYS
 10
968.420464
 20
587.504344
 11
808.420464
 21
587.504344
  0
LINE
  8
OBRYS
 10
1063.420464
 20
587.504344
 11
1063.420464
 21
588.844090
  0
LINE
  8
OBRYS
 10
713.420464
 20
587.504344
 11
713.420464
 21
588.844090
  0
LINE
  8
OBRYS
 10
901.491519
 20
952.574143
 11
875.349410
 21
952.574143
  0
ARC
  8
OBRYS
 10
877.954055
 20
951.782031
 40
2.722428
 50
90.526095
 51
163.084678
  0
LINE
  8
OBRYS
 10
877.929057
 20
954.504344
 11
898.911871
 21
954.504344
  0
ARC
  8
OBRYS
 10
898.866810
 20
951.755216
 40
2.749497
 50
17.328276
 51
89.060951
  0
ARC
  8
OBRYS
 10
878.810649
 20
955.616742
 40
1.419377
 50
172.455246
 51
231.602656
  0
ARC
  8
OBRYS
 10
888.420464
 20
1013.143199
 40
58.388855
 50
259.124144
 51
280.875856
  0
ARC
  8
OBRYS
 10
898.030280
 20
955.616742
 40
1.419377
 50
308.397344
 51
7.544754
  0
ARC
  8
OBRYS
 10
873.201054
 20
948.718751
 40
4.413556
 50
60.871952
 51
80.494838
  0
ARC
  8
OBRYS
 10
876.795600
 20
953.001758
 40
2.866561
 50
77.755329
 51
178.601624
  0
ARC
  8
OBRYS
 10
900.050413
 20
953.008224
 40
2.861327
 50
1.271409
 51
102.371638
  0
ARC
  8
OBRYS
 10
903.639875
 20
948.718751
 40
4.413556
 50
99.505162
 51
119.128048
  0
LINE
  8
OBRYS
 10
1065.920464
 20
622.004344
 11
1065.920464
 21
603.004344
  0
ARC
  8
OBRYS
 10
888.420464
 20
802.304344
 40
150.000000
 50
97.198802
 51
108.558354
  0
ARC
  8
OBRYS
 10
888.420464
 20
802.304344
 40
150.000000
 50
71.441646
 51
82.801198
  0
LINE
  8
OBRYS
 10
894.920464
 20
948.504344
 11
881.920464
 21
948.504344
  0
LINE
  8
OBRYS
 10
779.920464
 20
948.504344
 11
766.920464
 21
948.504344
  0
LINE
  8
OBRYS
 10
1009.920464
 20
948.504344
 11
996.920464
 21
948.504344
  0
LINE
  8
OBRYS
 10
963.920464
 20
953.254344
 11
942.920464
 21
953.254344
  0
LINE
  8
OBRYS
 10
711.920464
 20
687.504344
 11
711.920464
 21
677.004344
  0
LINE
  8
OBRYS
 10
711.920464
 20
698.004344
 11
711.920464
 21
687.504344
  0
LINE
  8
OBRYS
 10
875.349410
 20
952.574143
 11
875.065792
 21
951.106458
  0
LINE
  8
OBRYS
 10
875.065792
 20
951.106458
 11
874.431362
 21
948.987243
  0
LINE
  8
OBRYS
 10
874.431362
 20
948.987243
 11
873.873141
 21
947.637809
  0
LINE
  8
OBRYS
 10
873.873141
 20
947.637809
 11
873.540149
 21
946.951005
  0
LINE
  8
OBRYS
 10
873.540149
 20
946.951005
 11
873.551836
 21
946.974038
  0
ARC
  8
OBRYS
 10
919.648032
 20
955.313638
 40
18.362021
 50
188.580194
 51
207.011968
  0
LINE
  8
OBRYS
 10
872.709861
 20
948.644698
 11
872.701007
 21
948.628239
  0
LINE
  8
OBRYS
 10
872.701007
 20
948.628239
 11
872.967239
 21
949.153891
  0
LINE
  8
OBRYS
 10
872.967239
 20
949.153891
 11
873.392676
 21
950.198870
  0
LINE
  8
OBRYS
 10
873.392676
 20
950.198870
 11
873.808629
 21
951.877579
  0
LINE
  8
OBRYS
 10
873.808629
 20
951.877579
 11
873.929893
 21
953.071713
  0
ARC
  8
OBRYS
 10
913.049108
 20
953.484023
 40
10.146453
 50
182.328906
 51
208.486269
  0
LINE
  8
OBRYS
 10
1064.920464
 20
602.004344
 11
1064.920464
 21
623.004344
  0
ARC
  8
OBRYS
 10
888.420464
 20
802.304344
 40
149.438830
 50
97.021518
 51
107.906429
  0
ARC
  8
OBRYS
 10
888.420464
 20
802.304344
 40
149.438830
 50
72.093571
 51
82.978482
  0
ARC
  8
OBRYS
 10
888.420464
 20
802.304344
 40
147.440049
 50
96.284135
 51
105.321182
  0
ARC
  8
OBRYS
 10
888.420464
 20
802.304344
 40
147.440049
 50
74.678818
 51
83.715865
  0
ARC
  8
OBRYS
 10
1260.578463
 20
657.304344
 40
5.000000
 50
0.000000
 51
90.000000
  0
LINE
  8
OBRYS
 10
1260.578463
 20
942.304344
 11
1250.508664
 21
941.952699
  0
LINE
  8
OBRYS
 10
1250.508664
 20
662.655989
 11
1260.578463
 21
662.304344
  0
ARC
  8
OBRYS
 10
1250.578463
 20
664.654771
 40
2.000000
 50
180.000000
 51
268.000000
  0
ARC
  8
OBRYS
 10
1250.578463
 20
939.953917
 40
2.000000
 50
92.000000
 51
180.000000
  0
ARC
  8
OBRYS
 10
1242.578463
 20
746.478207
 40
1.000000
 50
180.000000
 51
270.000000
  0
ARC
  8
OBRYS
 10
1242.578463
 20
762.478207
 40
1.000000
 50
90.000000
 51
180.000000
  0
LINE
  8
OBRYS
 10
1248.578463
 20
763.478207
 11
1242.578463
 21
763.478207
  0
LINE
  8
OBRYS
 10
1242.578463
 20
745.478207
 11
1248.578463
 21
745.478207
  0
ARC
  8
OBRYS
 10
1242.578463
 20
842.149065
 40
1.000000
 50
180.000000
 51
270.000000
  0
ARC
  8
OBRYS
 10
1242.578463
 20
858.149065
 40
1.000000
 50
90.000000
 51
180.000000
  0
LINE
  8
OBRYS
 10
1248.578463
 20
859.149065
 11
1242.578463
 21
859.149065
  0
LINE
  8
OBRYS
 10
1242.578463
 20
841.149065
 11
1248.578463
 21
841.149065
  0
ARC
  8
OBRYS
 10
1270.078463
 20
948.504344
 40
1.000000
 50
90.000000
 51
180.000000
  0
ARC
  8
OBRYS
 10
1281.078463
 20
948.504344
 40
1.000000
 50
0.000000
 51
90.000000
  0
LINE
  8
OBRYS
 10
1282.078463
 20
944.504344
 11
1282.078463
 21
948.504344
  0
LINE
  8
OBRYS
 10
1269.078463
 20
948.504344
 11
1269.078463
 21
944.504344
  0
ARC
  8
OBRYS
 10
1388.078463
 20
948.504344
 40
1.000000
 50
90.000000
 51
180.000000
  0
ARC
  8
OBRYS
 10
1399.078463
 20
948.504344
 40
1.000000
 50
0.000000
 51
90.000000
  0
LINE
  8
OBRYS
 10
1400.078463
 20
944.504344
 11
1400.078463
 21
948.504344
  0
LINE
  8
OBRYS
 10
1387.078463
 20
948.504344
 11
1387.078463
 21
944.504344
  0
LINE
  8
OBRYS
 10
1513.078463
 20
944.504344
 11
1513.078463
 21
948.504344
  0
LINE
  8
OBRYS
 10
1500.078463
 20
948.504344
 11
1500.078463
 21
944.504344
  0
ARC
  8
OBRYS
 10
1501.078463
 20
948.504344
 40
1.000000
 50
90.000000
 51
180.000000
  0
ARC
  8
OBRYS
 10
1512.078463
 20
948.504344
 40
1.000000
 50
0.000000
 51
90.000000
  0
ARC
  8
OBRYS
 10
1501.578463
 20
734.220377
 40
5.000000
 50
90.000000
 51
180.000000
  0
ARC
  8
OBRYS
 10
1531.578463
 20
890.788312
 40
5.000000
 50
180.000000
 51
270.000000
  0
LINE
  8
OBRYS
 10
1501.578463
 20
739.220377
 11
1561.578463
 21
739.220377
  0
LINE
  8
OBRYS
 10
1561.578463
 20
885.788312
 11
1531.578463
 21
885.788312
  0
LINE
  8
OBRYS
 10
1561.578463
 20
732.504344
 11
1565.078463
 21
732.504344
  0
LINE
  8
OBRYS
 10
1565.078463
 20
892.504344
 11
1561.578463
 21
892.504344
  0
ARC
  8
OBRYS
 10
1242.578463
 20
909.789286
 40
1.000000
 50
180.000000
 51
270.000000
  0
ARC
  8
OBRYS
 10
1242.578463
 20
925.789286
 40
1.000000
 50
90.000000
 51
180.000000
  0
LINE
  8
OBRYS
 10
1248.578463
 20
926.789286
 11
1242.578463
 21
926.789286
  0
LINE
  8
OBRYS
 10
1242.578463
 20
908.789286
 11
1248.578463
 21
908.789286
  0
ARC
  8
OBRYS
 10
1242.578463
 20
678.819403
 40
1.000000
 50
180.000000
 51
270.000000
  0
ARC
  8
OBRYS
 10
1242.578463
 20
694.819403
 40
1.000000
 50
90.000000
 51
180.000000
  0
LINE
  8
OBRYS
 10
1248.578463
 20
695.819403
 11
1242.578463
 21
695.819403
  0
LINE
  8
OBRYS
 10
1242.578463
 20
677.819403
 11
1248.578463
 21
677.819403
  0
LINE
  8
OBRYS
 10
1565.078463
 20
772.504344
 11
1567.078463
 21
772.504344
  0
LINE
  8
OBRYS
 10
1567.078463
 20
852.504344
 11
1565.078463
 21
852.504344
  0
LINE
  8
OBRYS
 10
1567.078463
 20
772.504344
 11
1569.078463
 21
773.232285
  0
LINE
  8
OBRYS
 10
1569.078463
 20
851.776404
 11
1567.078463
 21
852.504344
  0
LINE
  8
OBRYS
 10
1569.078463
 20
782.504344
 11
1688.078463
 21
782.504344
  0
LINE
  8
OBRYS
 10
1574.180710
 20
842.504344
 11
1569.078463
 21
842.504344
  0
LINE
  8
OBRYS
 10
1688.078463
 20
842.504344
 11
1683.976215
 21
842.504344
  0
LINE
  8
OBRYS
 10
1688.078463
 20
782.504344
 11
1689.078463
 21
783.504344
  0
LINE
  8
OBRYS
 10
1689.078463
 20
841.504344
 11
1688.078463
 21
842.504344
  0
ARC
  8
OBRYS
 10
1353.578463
 20
991.504344
 40
6.000000
 50
0.000000
 51
180.000000
  0
LINE
  8
OBRYS
 10
1347.578463
 20
991.504344
 11
1347.578463
 21
954.730931
  0
LINE
  8
OBRYS
 10
1359.578463
 20
954.731183
 11
1359.578463
 21
991.504344
  0
LINE
  8
OBRYS
 10
1368.578463
 20
944.504344
 11
1368.296659
 21
952.574143
  0
LINE
  8
OBRYS
 10
1338.860266
 20
952.574143
 11
1338.578463
 21
944.504344
  0
ARC
  8
OBRYS
 10
1346.501655
 20
955.806988
 40
1.283832
 50
264.642948
 51
316.626471
  0
LINE
  8
OBRYS
 10
1360.751894
 20
954.538876
 11
1360.476634
 21
954.530383
  0
LINE
  8
OBRYS
 10
1360.476634
 20
954.530383
 11
1359.945346
 21
954.733161
  0
LINE
  8
OBRYS
 10
1359.945346
 20
954.733161
 11
1359.653445
 21
954.979503
  0
LINE
  8
OBRYS
 10
1359.653445
 20
954.979503
 11
1359.543973
 21
955.142303
  0
LINE
  8
OBRYS
 10
1359.543973
 20
955.142303
 11
1359.544277
 21
955.136146
  0
ARC
  8
OBRYS
 10
1501.578463
 20
687.504344
 40
5.000000
 50
90.000000
 51
180.000000
  0
LINE
  8
OBRYS
 10
1501.578463
 20
692.504344
 11
1561.578463
 21
692.504344
  0
ARC
  8
OBRYS
 10
1340.859048
 20
952.504344
 40
2.000000
 50
90.000000
 51
178.000000
  0
ARC
  8
OBRYS
 10
1366.297877
 20
952.504344
 40
2.000000
 50
2.000000
 51
90.000000
  0
LINE
  8
OBRYS
 10
1247.578463
 20
902.304344
 11
1186.578463
 21
902.304344
  0
LINE
  8
OBRYS
 10
1186.578463
 20
702.304344
 11
1247.578463
 21
702.304344
  0
LINE
  8
OBRYS
 10
1248.578463
 20
902.881694
 11
1247.578463
 21
902.304344
  0
LINE
  8
OBRYS
 10
1247.578463
 20
702.304344
 11
1248.578463
 21
701.726994
  0
LINE
  8
OBRYS
 10
1574.078463
 20
846.504344
 11
1574.078463
 21
842.474120
  0
LINE
  8
OBRYS
 10
1684.078463
 20
842.474120
 11
1684.078463
 21
846.504344
  0
LINE
  8
OBRYS
 10
1264.078463
 20
948.504344
 11
1264.078463
 21
944.504344
  0
ARC
  8
OBRYS
 10
1265.078463
 20
948.504344
 40
1.000000
 50
90.000000
 51
180.000000
  0
LINE
  8
OBRYS
 10
1523.078463
 20
944.504344
 11
1523.078463
 21
948.504344
  0
ARC
  8
OBRYS
 10
1522.078463
 20
948.504344
 40
1.000000
 50
0.000000
 51
90.000000
  0
ARC
  8
OBRYS
 10
1501.578463
 20
644.252371
 40
5.000000
 50
92.000000
 51
180.000000
  0
LINE
  8
OBRYS
 10
1501.403965
 20
649.249325
 11
1504.752960
 21
649.366274
  0
ARC
  8
OBRYS
 10
1504.578463
 20
654.363229
 40
5.000000
 50
272.000000
 51
360.000000
  0
LINE
  8
OBRYS
 10
1360.760710
 20
954.541702
 11
1360.568264
 21
954.546959
  0
LINE
  8
OBRYS
 10
1477.078463
 20
946.004344
 11
1477.078463
 21
944.504344
  0
LINE
  8
OBRYS
 10
1500.078463
 20
948.504344
 11
1500.078463
 21
953.254344
  0
LINE
  8
OBRYS
 10
1479.078463
 20
953.254344
 11
1479.078463
 21
946.004344
  0
ARC
  8
OBRYS
 10
1479.828463
 20
953.254344
 40
0.750000
 50
90.000000
 51
180.000000
  0
ARC
  8
OBRYS
 10
1499.328463
 20
953.254344
 40
0.750000
 50
0.000000
 51
90.000000
  0
LINE
  8
OBRYS
 10
1156.578463
 20
652.304344
 11
1172.648262
 21
652.865514
  0
LINE
  8
OBRYS
 10
1172.648262
 20
951.743174
 11
1156.578463
 21
952.304344
  0
ARC
  8
OBRYS
 10
1172.578463
 20
654.864296
 40
2.000000
 50
272.000000
 51
360.000000
  0
ARC
  8
OBRYS
 10
1172.578463
 20
949.744393
 40
2.000000
 50
0.000000
 51
88.000000
  0
ARC
  8
OBRYS
 10
1177.578463
 20
698.988229
 40
3.000000
 50
92.000000
 51
180.000000
  0
ARC
  8
OBRYS
 10
1177.578463
 20
905.620460
 40
3.000000
 50
180.000000
 51
268.000000
  0
LINE
  8
OBRYS
 10
1177.473764
 20
701.986401
 11
1186.578463
 21
702.304344
  0
LINE
  8
OBRYS
 10
1186.578463
 20
902.304344
 11
1177.473764
 21
902.622287
  0
CIRCLE
  8
OBRYS
 10
1431.578463
 20
687.504344
 40
9.500000
  0
CIRCLE
  8
OBRYS
 10
1431.578463
 20
687.504344
 40
10.500000
  0
LINE
  8
OBRYS
 10
1431.578463
 20
692.123146
 11
1427.578463
 21
689.813745
  0
LINE
  8
OBRYS
 10
1427.578463
 20
689.813745
 11
1427.578463
 21
685.194943
  0
LINE
  8
OBRYS
 10
1427.578463
 20
685.194943
 11
1431.578463
 21
682.885542
  0
LINE
  8
OBRYS
 10
1431.578463
 20
682.885542
 11
1435.578463
 21
685.194943
  0
LINE
  8
OBRYS
 10
1435.578463
 20
685.194943
 11
1435.578463
 21
689.813745
  0
LINE
  8
OBRYS
 10
1435.578463
 20
689.813745
 11
1431.578463
 21
692.123146
  0
ARC
  8
OBRYS
 10
1303.062067
 20
595.679002
 40
53.001862
 50
134.010754
 51
135.989246
  0
LINE
  8
OBRYS
 10
1264.942630
 20
632.504344
 11
1195.284367
 21
632.504344
  0
LINE
  8
OBRYS
 10
1195.284367
 20
632.504344
 11
1195.309233
 21
633.479796
  0
LINE
  8
OBRYS
 10
1195.309233
 20
633.479796
 11
1195.382875
 21
634.417761
  0
LINE
  8
OBRYS
 10
1195.382875
 20
634.417761
 11
1195.502462
 21
635.282195
  0
LINE
  8
OBRYS
 10
1195.502462
 20
635.282195
 11
1195.663399
 21
636.039878
  0
LINE
  8
OBRYS
 10
1195.663399
 20
636.039878
 11
1195.859502
 21
636.661692
  0
LINE
  8
OBRYS
 10
1195.859502
 20
636.661692
 11
1196.083234
 21
637.123742
  0
LINE
  8
OBRYS
 10
1196.083234
 20
637.123742
 11
1196.325997
 21
637.408271
  0
LINE
  8
OBRYS
 10
1196.325997
 20
637.408271
 11
1196.578463
 21
637.504344
  0
LINE
  8
OBRYS
 10
1196.578463
 20
637.504344
 11
1260.578463
 21
637.504344
  0
ARC
  8
OBRYS
 10
1260.575292
 20
637.133112
 40
0.371246
 50
58.732960
 51
89.510607
  0
ARC
  8
OBRYS
 10
1273.118360
 20
660.609900
 40
26.246765
 50
241.930079
 51
258.552746
  0
ARC
  8
OBRYS
 10
1270.282089
 20
629.403160
 40
5.973562
 50
113.404438
 51
132.626102
  0
LINE
  8
OBRYS
 10
1265.578463
 20
642.396530
 11
1265.688146
 21
641.901419
  0
LINE
  8
OBRYS
 10
1265.688146
 20
641.901419
 11
1266.211719
 21
640.620695
  0
LINE
  8
OBRYS
 10
1266.211719
 20
640.620695
 11
1267.446080
 21
638.468805
  0
LINE
  8
OBRYS
 10
1267.446080
 20
638.468805
 11
1268.476619
 21
637.383997
  0
LINE
  8
OBRYS
 10
1268.476619
 20
637.383997
 11
1268.984628
 21
637.147553
  0
LINE
  8
OBRYS
 10
1268.984628
 20
637.147553
 11
1269.245072
 21
637.110603
  0
LINE
  8
OBRYS
 10
1269.245072
 20
637.110603
 11
1269.762966
 21
637.201223
  0
LINE
  8
OBRYS
 10
1269.762966
 20
637.201223
 11
1270.051238
 21
637.337256
  0
LINE
  8
OBRYS
 10
1270.051238
 20
637.337256
 11
1270.578463
 21
637.714398
  0
ARC
  8
OBRYS
 10
1264.882665
 20
640.414425
 40
6.303353
 50
298.695784
 51
334.637248
  0
LINE
  8
OBRYS
 10
1265.578463
 20
642.396530
 11
1265.486957
 21
641.453918
  0
LINE
  8
OBRYS
 10
1265.486957
 20
641.453918
 11
1265.342126
 21
640.892777
  0
LINE
  8
OBRYS
 10
1491.578463
 20
637.714398
 11
1492.175210
 21
637.299394
  0
LINE
  8
OBRYS
 10
1492.175210
 20
637.299394
 11
1492.725824
 21
637.118778
  0
LINE
  8
OBRYS
 10
1492.725824
 20
637.118778
 11
1493.033798
 21
637.120788
  0
LINE
  8
OBRYS
 10
1493.033798
 20
637.120788
 11
1493.552079
 21
637.304094
  0
LINE
  8
OBRYS
 10
1493.552079
 20
637.304094
 11
1493.828764
 21
637.492958
  0
LINE
  8
OBRYS
 10
1493.828764
 20
637.492958
 11
1494.707644
 21
638.464349
  0
LINE
  8
OBRYS
 10
1494.707644
 20
638.464349
 11
1495.773666
 21
640.267721
  0
LINE
  8
OBRYS
 10
1495.773666
 20
640.267721
 11
1496.357504
 21
641.584290
  0
LINE
  8
OBRYS
 10
1496.357504
 20
641.584290
 11
1496.558913
 21
642.234434
  0
LINE
  8
OBRYS
 10
1496.558913
 20
642.234434
 11
1496.578463
 21
642.396530
  0
LINE
  8
OBRYS
 10
1496.578463
 20
642.396530
 11
1496.669969
 21
641.453918
  0
LINE
  8
OBRYS
 10
1496.669969
 20
641.453918
 11
1496.760035
 21
641.074778
  0
ARC
  8
OBRYS
 10
1489.181890
 20
660.210896
 40
25.827325
 50
281.311299
 51
298.205877
  0
ARC
  8
OBRYS
 10
1497.266640
 20
640.407236
 40
6.293388
 50
205.333324
 51
241.333643
  0
LINE
  8
OBRYS
 10
1501.578463
 20
637.504344
 11
1551.578463
 21
637.504344
  0
LINE
  8
OBRYS
 10
1552.872558
 20
632.504344
 11
1552.847692
 21
633.479796
  0
LINE
  8
OBRYS
 10
1552.847692
 20
633.479796
 11
1552.774051
 21
634.417761
  0
LINE
  8
OBRYS
 10
1552.774051
 20
634.417761
 11
1552.654464
 21
635.282195
  0
LINE
  8
OBRYS
 10
1552.654464
 20
635.282195
 11
1552.493526
 21
636.039878
  0
LINE
  8
OBRYS
 10
1552.493526
 20
636.039878
 11
1552.297423
 21
636.661692
  0
LINE
  8
OBRYS
 10
1552.297423
 20
636.661692
 11
1552.073691
 21
637.123742
  0
LINE
  8
OBRYS
 10
1552.073691
 20
637.123742
 11
1551.830928
 21
637.408271
  0
LINE
  8
OBRYS
 10
1551.830928
 20
637.408271
 11
1551.578463
 21
637.504344
  0
LINE
  8
OBRYS
 10
1552.872558
 20
632.504344
 11
1497.214295
 21
632.504344
  0
ARC
  8
OBRYS
 10
1459.094858
 20
595.679002
 40
53.001862
 50
44.010754
 51
45.989246
  0
ARC
  8
OBRYS
 10
1491.424977
 20
628.710841
 40
6.789012
 50
48.537316
 51
65.432144
  0
ARC
  8
OBRYS
 10
1501.586381
 20
637.116423
 40
0.388001
 50
91.169309
 51
120.587124
  0
CIRCLE
  8
OBRYS
 10
1431.578543
 20
687.503584
 40
14.999240
  0
LINE
  8
OBRYS
 10
1495.578463
 20
932.504344
 11
1496.578463
 21
932.504344
  0
LINE
  8
OBRYS
 10
1496.578463
 20
825.739886
 11
1496.578463
 21
932.504344
  0
LINE
  8
OBRYS
 10
1491.937447
 20
773.716465
 11
1492.417859
 21
775.048535
  0
LINE
  8
OBRYS
 10
1492.417859
 20
775.048535
 11
1492.558916
 21
776.969415
  0
LINE
  8
OBRYS
 10
1492.558916
 20
776.969415
 11
1492.399261
 21
778.883277
  0
LINE
  8
OBRYS
 10
1492.399261
 20
778.883277
 11
1492.078261
 21
781.576330
  0
LINE
  8
OBRYS
 10
1492.078261
 20
781.576330
 11
1491.955086
 21
783.596314
  0
LINE
  8
OBRYS
 10
1491.955086
 20
783.596314
 11
1491.987729
 21
784.245328
  0
LINE
  8
OBRYS
 10
1491.987729
 20
784.245328
 11
1492.105358
 21
785.251664
  0
LINE
  8
OBRYS
 10
1492.105358
 20
785.251664
 11
1492.319815
 21
786.955027
  0
LINE
  8
OBRYS
 10
1492.319815
 20
786.955027
 11
1492.483757
 21
788.232713
  0
LINE
  8
OBRYS
 10
1492.483757
 20
788.232713
 11
1492.634804
 21
789.413571
  0
LINE
  8
OBRYS
 10
1492.634804
 20
789.413571
 11
1493.957754
 21
799.928198
  0
LINE
  8
OBRYS
 10
1493.957754
 20
799.928198
 11
1494.353618
 21
803.137390
  0
LINE
  8
OBRYS
 10
1494.353618
 20
803.137390
 11
1494.744410
 21
806.335497
  0
LINE
  8
OBRYS
 10
1494.744410
 20
806.335497
 11
1495.130129
 21
809.522501
  0
LINE
  8
OBRYS
 10
1495.130129
 20
809.522501
 11
1495.510775
 21
812.698382
  0
LINE
  8
OBRYS
 10
1495.510775
 20
812.698382
 11
1495.630396
 21
814.774842
  0
LINE
  8
OBRYS
 10
1495.630396
 20
814.774842
 11
1495.593935
 21
817.214083
  0
LINE
  8
OBRYS
 10
1495.593935
 20
817.214083
 11
1495.517441
 21
819.535393
  0
LINE
  8
OBRYS
 10
1495.517441
 20
819.535393
 11
1495.676488
 21
822.873946
  0
LINE
  8
OBRYS
 10
1495.676488
 20
822.873946
 11
1496.016841
 21
824.413086
  0
LINE
  8
OBRYS
 10
1496.016841
 20
824.413086
 11
1496.578463
 21
825.739886
  0
LINE
  8
OBRYS
 10
1491.578463
 20
753.006857
 11
1491.608732
 21
755.785364
  0
LINE
  8
OBRYS
 10
1491.608732
 20
755.785364
 11
1491.699525
 21
758.286635
  0
LINE
  8
OBRYS
 10
1491.699525
 20
758.286635
 11
1491.850843
 21
760.510875
  0
LINE
  8
OBRYS
 10
1491.850843
 20
760.510875
 11
1492.062686
 21
762.458269
  0
LINE
  8
OBRYS
 10
1492.062686
 20
762.458269
 11
1492.242417
 21
763.663438
  0
LINE
  8
OBRYS
 10
1492.242417
 20
763.663438
 11
1492.426318
 21
764.887318
  0
LINE
  8
OBRYS
 10
1492.426318
 20
764.887318
 11
1492.350749
 21
766.045038
  0
LINE
  8
OBRYS
 10
1492.350749
 20
766.045038
 11
1492.034414
 21
767.724111
  0
LINE
  8
OBRYS
 10
1492.034414
 20
767.724111
 11
1491.754144
 21
769.040423
  0
LINE
  8
OBRYS
 10
1491.754144
 20
769.040423
 11
1491.565268
 21
770.093914
  0
LINE
  8
OBRYS
 10
1491.565268
 20
770.093914
 11
1491.467785
 21
770.884681
  0
LINE
  8
OBRYS
 10
1491.467785
 20
770.884681
 11
1491.515823
 21
772.476032
  0
LINE
  8
OBRYS
 10
1491.515823
 20
772.476032
 11
1491.937447
 21
773.716465
  0
LINE
  8
OBRYS
 10
1491.578463
 20
652.504344
 11
1491.578463
 21
753.006857
  0
LINE
  8
OBRYS
 10
1270.578463
 20
652.504344
 11
1491.578463
 21
652.504344
  0
LINE
  8
OBRYS
 10
1270.578463
 20
932.504344
 11
1270.578463
 21
652.504344
  0
LINE
  8
OBRYS
 10
1270.578463
 20
932.504344
 11
1495.578463
 21
932.504344
  0
ARC
  8
OBRYS
 10
1492.815837
 20
740.192472
 40
12.873987
 50
73.006346
 51
95.515457
  0
LINE
  8
OBRYS
 10
1496.578463
 20
752.504344
 11
1496.578463
 21
652.504344
  0
LINE
  8
OBRYS
 10
1491.578463
 20
652.504344
 11
1496.578463
 21
652.504344
  0
LINE
  8
OBRYS
 10
1491.578463
 20
637.714398
 11
1491.578463
 21
652.504344
  0
LINE
  8
OBRYS
 10
1495.920200
 20
587.504344
 11
1495.920200
 21
633.798439
  0
LINE
  8
OBRYS
 10
1495.920200
 20
587.504344
 11
1461.578463
 21
587.504344
  0
LINE
  8
OBRYS
 10
1461.578463
 20
587.504344
 11
1461.578463
 21
588.844090
  0
LINE
  8
OBRYS
 10
1456.578463
 20
597.504344
 11
1456.588463
 21
597.494344
  0
LINE
  8
OBRYS
 10
1456.588463
 20
597.494344
 11
1459.436434
 21
594.377307
  0
LINE
  8
OBRYS
 10
1459.436434
 20
594.377307
 11
1460.402805
 21
592.924752
  0
LINE
  8
OBRYS
 10
1460.402805
 20
592.924752
 11
1461.131675
 21
591.344090
  0
LINE
  8
OBRYS
 10
1461.131675
 20
591.344090
 11
1461.578463
 21
588.844090
  0
LINE
  8
OBRYS
 10
1388.578463
 20
597.504344
 11
1456.578463
 21
597.504344
  0
LINE
  8
OBRYS
 10
1383.578463
 20
588.844090
 11
1384.025250
 21
591.344090
  0
LINE
  8
OBRYS
 10
1384.025250
 20
591.344090
 11
1384.754121
 21
592.924752
  0
LINE
  8
OBRYS
 10
1384.754121
 20
592.924752
 11
1385.720491
 21
594.377307
  0
LINE
  8
OBRYS
 10
1385.720491
 20
594.377307
 11
1388.568463
 21
597.494344
  0
LINE
  8
OBRYS
 10
1388.568463
 20
597.494344
 11
1388.578463
 21
597.504344
  0
LINE
  8
OBRYS
 10
1383.578463
 20
587.504344
 11
1383.578463
 21
588.844090
  0
LINE
  8
OBRYS
 10
1266.236725
 20
633.798439
 11
1266.236725
 21
587.504344
  0
LINE
  8
OBRYS
 10
1270.578463
 20
652.504344
 11
1270.578463
 21
637.714398
  0
LINE
  8
OBRYS
 10
1383.578463
 20
587.504344
 11
1266.236725
 21
587.504344
  0
LINE
  8
OBRYS
 10
1265.578463
 20
652.504344
 11
1270.578463
 21
652.504344
  0
LINE
  8
OBRYS
 10
1265.578463
 20
652.504344
 11
1265.578463
 21
932.504344
  0
LINE
  8
OBRYS
 10
1264.942630
 20
587.504344
 11
1264.942630
 21
632.504344
  0
LINE
  8
OBRYS
 10
1266.236725
 20
587.504344
 11
1264.942630
 21
587.504344
  0
LINE
  8
OBRYS
 10
1265.578463
 20
642.396530
 11
1265.578463
 21
652.504344
  0
LINE
  8
OBRYS
 10
1456.578463
 20
592.504344
 11
1456.578463
 21
597.504344
  0
LINE
  8
OBRYS
 10
1456.578463
 20
592.504344
 11
1388.578463
 21
592.504344
  0
LINE
  8
OBRYS
 10
1388.578463
 20
597.504344
 11
1388.578463
 21
592.504344
  0
ARC
  8
OBRYS
 10
1388.578463
 20
587.504344
 40
5.000000
 50
90.000000
 51
180.000000
  0
LINE
  8
OBRYS
 10
1496.578463
 20
652.504344
 11
1496.578463
 21
642.396530
  0
ARC
  8
OBRYS
 10
1456.578463
 20
587.504344
 40
5.000000
 50
0.000000
 51
90.000000
  0
LINE
  8
OBRYS
 10
1497.214295
 20
632.504344
 11
1497.214295
 21
587.504344
  0
LINE
  8
OBRYS
 10
1497.214295
 20
587.504344
 11
1495.920200
 21
587.504344
  0
LINE
  8
OBRYS
 10
1195.284367
 20
632.504344
 11
1195.284367
 21
587.504344
  0
LINE
  8
OBRYS
 10
1264.942630
 20
587.504344
 11
1195.284367
 21
587.504344
  0
LINE
  8
OBRYS
 10
1552.872558
 20
587.504344
 11
1552.872558
 21
632.504344
  0
LINE
  8
OBRYS
 10
1552.872558
 20
587.504344
 11
1497.214295
 21
587.504344
  0
CIRCLE
  8
OBRYS
 10
1431.578463
 20
687.504344
 40
12.500000
  0
LINE
  8
OBRYS
 10
1265.578463
 20
642.504344
 11
1265.578463
 21
642.396530
  0
ARC
  8
OBRYS
 10
1260.578463
 20
642.504344
 40
5.000000
 50
270.000000
 51
360.000000
  0
ARC
  8
OBRYS
 10
1501.578463
 20
642.504344
 40
5.000000
 50
180.000000
 51
270.000000
  0
LINE
  8
OBRYS
 10
1496.578463
 20
642.396530
 11
1496.578463
 21
642.504344
  0
LINE
  8
OBRYS
 10
1491.937447
 20
773.716465
 11
1493.567030
 21
772.767876
  0
LINE
  8
OBRYS
 10
1493.567030
 20
772.767876
 11
1495.237411
 21
771.748124
  0
LINE
  8
OBRYS
 10
1495.237411
 20
771.748124
 11
1496.840048
 21
770.715471
  0
LINE
  8
OBRYS
 10
1496.840048
 20
770.715471
 11
1498.255623
 21
769.740859
  0
LINE
  8
OBRYS
 10
1498.255623
 20
769.740859
 11
1499.379697
 21
768.893745
  0
LINE
  8
OBRYS
 10
1499.379697
 20
768.893745
 11
1500.146829
 21
768.226530
  0
LINE
  8
OBRYS
 10
1500.146829
 20
768.226530
 11
1500.542337
 21
767.764391
  0
LINE
  8
OBRYS
 10
1500.542337
 20
767.764391
 11
1500.597701
 21
767.504344
  0
ARC
  8
OBRYS
 10
1526.578463
 20
752.504344
 40
30.000000
 50
150.000000
 51
180.000000
  0
LINE
  8
OBRYS
 10
1496.578463
 20
825.739886
 11
1498.494198
 21
824.649040
  0
LINE
  8
OBRYS
 10
1498.494198
 20
824.649040
 11
1500.252527
 21
823.620062
  0
LINE
  8
OBRYS
 10
1500.252527
 20
823.620062
 11
1501.849767
 21
822.666316
  0
LINE
  8
OBRYS
 10
1501.849767
 20
822.666316
 11
1503.284857
 21
821.795891
  0
LINE
  8
OBRYS
 10
1503.284857
 20
821.795891
 11
1504.558728
 21
821.012608
  0
LINE
  8
OBRYS
 10
1504.558728
 20
821.012608
 11
1505.673735
 21
820.317003
  0
LINE
  8
OBRYS
 10
1505.673735
 20
820.317003
 11
1506.633149
 21
819.707222
  0
LINE
  8
OBRYS
 10
1506.633149
 20
819.707222
 11
1509.521267
 21
817.800362
  0
LINE
  8
OBRYS
 10
1509.521267
 20
817.800362
 11
1511.997195
 21
816.088895
  0
LINE
  8
OBRYS
 10
1511.997195
 20
816.088895
 11
1513.086431
 21
815.312153
  0
LINE
  8
OBRYS
 10
1513.086431
 20
815.312153
 11
1514.080893
 21
814.588035
  0
LINE
  8
OBRYS
 10
1514.080893
 20
814.588035
 11
1514.984391
 21
813.914868
  0
LINE
  8
OBRYS
 10
1514.984391
 20
813.914868
 11
1515.800995
 21
813.289868
  0
LINE
  8
OBRYS
 10
1515.800995
 20
813.289868
 11
1517.789571
 21
811.679121
  0
LINE
  8
OBRYS
 10
1517.789571
 20
811.679121
 11
1519.351791
 21
810.306969
  0
LINE
  8
OBRYS
 10
1519.351791
 20
810.306969
 11
1520.184627
 21
809.520417
  0
LINE
  8
OBRYS
 10
1520.184627
 20
809.520417
 11
1520.869547
 21
808.826029
  0
LINE
  8
OBRYS
 10
1520.869547
 20
808.826029
 11
1521.421481
 21
808.210987
  0
LINE
  8
OBRYS
 10
1521.421481
 20
808.210987
 11
1522.274989
 21
807.040354
  0
LINE
  8
OBRYS
 10
1522.274989
 20
807.040354
 11
1522.636762
 21
806.162913
  0
LINE
  8
OBRYS
 10
1522.636762
 20
806.162913
 11
1522.559225
 21
805.542820
  0
LINE
  8
OBRYS
 10
1522.559225
 20
805.542820
 11
1500.597701
 21
767.504344
  0
ARC
  8
OBRYS
 10
1496.578463
 20
820.542820
 40
30.000000
 50
330.000000
 51
360.000000
  0
LINE
  8
OBRYS
 10
1526.578463
 20
820.542820
 11
1526.002021
 21
821.556717
  0
LINE
  8
OBRYS
 10
1526.002021
 20
821.556717
 11
1524.294849
 21
822.531651
  0
LINE
  8
OBRYS
 10
1524.294849
 20
822.531651
 11
1521.522551
 21
823.430155
  0
LINE
  8
OBRYS
 10
1521.522551
 20
823.430155
 11
1517.791666
 21
824.217701
  0
LINE
  8
OBRYS
 10
1517.791666
 20
824.217701
 11
1513.245570
 21
824.864023
  0
LINE
  8
OBRYS
 10
1513.245570
 20
824.864023
 11
1508.058966
 21
825.344283
  0
LINE
  8
OBRYS
 10
1508.058966
 20
825.344283
 11
1502.431172
 21
825.640026
  0
LINE
  8
OBRYS
 10
1502.431172
 20
825.640026
 11
1496.578463
 21
825.739886
  0
LINE
  8
OBRYS
 10
1526.578463
 20
932.504344
 11
1526.578463
 21
820.542820
  0
LINE
  8
OBRYS
 10
1496.578463
 20
932.504344
 11
1526.578463
 21
932.504344
  0
ARC
  8
OBRYS
 10
1551.578463
 20
632.504344
 40
5.000000
 50
0.000000
 51
90.000000
  0
LINE
  8
OBRYS
 10
1552.872558
 20
632.504344
 11
1556.578463
 21
632.504344
  0
LINE
  8
OBRYS
 10
1556.578463
 20
632.504344
 11
1556.578463
 21
587.504344
  0
LINE
  8
OBRYS
 10
1556.578463
 20
587.504344
 11
1552.872558
 21
587.504344
  0
ARC
  8
OBRYS
 10
1196.578463
 20
632.504344
 40
5.000000
 50
90.000000
 51
180.000000
  0
LINE
  8
OBRYS
 10
1191.578463
 20
632.504344
 11
1195.284367
 21
632.504344
  0
LINE
  8
OBRYS
 10
1191.578463
 20
587.504344
 11
1191.578463
 21
632.504344
  0
LINE
  8
OBRYS
 10
1195.284367
 20
587.504344
 11
1191.578463
 21
587.504344
  0
LINE
  8
OBRYS
 10
1260.578463
 20
662.304344
 11
1260.578463
 21
932.504344
  0
LINE
  8
OBRYS
 10
1263.244537
 20
932.504344
 11
1264.578463
 21
932.504344
  0
LINE
  8
OBRYS
 10
1248.578463
 20
802.304344
 11
1248.578463
 21
939.953917
  0
LINE
  8
OBRYS
 10
1248.578463
 20
664.654771
 11
1248.578463
 21
802.304344
  0
LINE
  8
OBRYS
 10
1495.578463
 20
944.004344
 11
1495.578463
 21
932.504344
  0
LINE
  8
OBRYS
 10
1525.578463
 20
944.004344
 11
1495.578463
 21
944.004344
  0
LINE
  8
OBRYS
 10
1525.578463
 20
944.004344
 11
1525.578463
 21
932.504344
  0
LINE
  8
OBRYS
 10
1269.578463
 20
944.004344
 11
1269.578463
 21
932.504344
  0
LINE
  8
OBRYS
 10
1495.578463
 20
944.004344
 11
1269.578463
 21
944.004344
  0
LINE
  8
OBRYS
 10
1269.578463
 20
932.504344
 11
1270.578463
 21
932.504344
  0
LINE
  8
OBRYS
 10
1264.578463
 20
944.004344
 11
1264.578463
 21
932.504344
  0
LINE
  8
OBRYS
 10
1269.578463
 20
944.004344
 11
1264.578463
 21
944.004344
  0
LINE
  8
OBRYS
 10
1264.578463
 20
932.504344
 11
1269.578463
 21
932.504344
  0
LINE
  8
OBRYS
 10
1264.578463
 20
944.004344
 11
1265.078463
 21
944.504344
  0
LINE
  8
OBRYS
 10
1265.078463
 20
944.504344
 11
1269.578463
 21
944.504344
  0
LINE
  8
OBRYS
 10
1269.578463
 20
944.004344
 11
1269.578463
 21
944.504344
  0
LINE
  8
OBRYS
 10
1269.578463
 20
944.504344
 11
1495.578463
 21
944.504344
  0
LINE
  8
OBRYS
 10
1495.578463
 20
944.004344
 11
1495.578463
 21
944.504344
  0
LINE
  8
OBRYS
 10
1495.578463
 20
944.504344
 11
1525.078463
 21
944.504344
  0
LINE
  8
OBRYS
 10
1525.578463
 20
944.004344
 11
1525.078463
 21
944.504344
  0
LINE
  8
OBRYS
 10
1241.578463
 20
754.478207
 11
1241.578463
 21
762.478207
  0
LINE
  8
OBRYS
 10
1241.578463
 20
746.478207
 11
1241.578463
 21
754.478207
  0
LINE
  8
OBRYS
 10
1241.578463
 20
850.149065
 11
1241.578463
 21
858.149065
  0
LINE
  8
OBRYS
 10
1241.578463
 20
842.149065
 11
1241.578463
 21
850.149065
  0
LINE
  8
OBRYS
 10
1275.578463
 20
949.504344
 11
1281.078463
 21
949.504344
  0
LINE
  8
OBRYS
 10
1270.078463
 20
949.504344
 11
1275.578463
 21
949.504344
  0
LINE
  8
OBRYS
 10
1393.578463
 20
949.504344
 11
1399.078463
 21
949.504344
  0
LINE
  8
OBRYS
 10
1388.078463
 20
949.504344
 11
1393.578463
 21
949.504344
  0
LINE
  8
OBRYS
 10
1506.578463
 20
949.504344
 11
1512.078463
 21
949.504344
  0
LINE
  8
OBRYS
 10
1501.078463
 20
949.504344
 11
1506.578463
 21
949.504344
  0
LINE
  8
OBRYS
 10
1499.086607
 20
764.512586
 11
1499.287888
 21
764.779882
  0
LINE
  8
OBRYS
 10
1499.287888
 20
764.779882
 11
1499.624903
 21
764.976886
  0
LINE
  8
OBRYS
 10
1499.624903
 20
764.976886
 11
1500.087209
 21
765.097491
  0
LINE
  8
OBRYS
 10
1500.087209
 20
765.097491
 11
1500.660482
 21
765.137963
  0
LINE
  8
OBRYS
 10
1500.660482
 20
765.137963
 11
1501.326960
 21
765.097045
  0
LINE
  8
OBRYS
 10
1501.326960
 20
765.097045
 11
1502.065991
 21
764.976007
  0
LINE
  8
OBRYS
 10
1502.065991
 20
764.976007
 11
1502.854678
 21
764.778599
  0
LINE
  8
OBRYS
 10
1502.854678
 20
764.778599
 11
1503.668583
 21
764.510937
  0
ARC
  8
OBRYS
 10
1524.715609
 20
754.901034
 40
23.137147
 50
155.458942
 51
179.991803
  0
LINE
  8
OBRYS
 10
1496.578463
 20
752.504344
 11
1496.674536
 21
752.972561
  0
LINE
  8
OBRYS
 10
1496.674536
 20
752.972561
 11
1496.959065
 21
753.422784
  0
LINE
  8
OBRYS
 10
1496.959065
 20
753.422784
 11
1497.421115
 21
753.837713
  0
LINE
  8
OBRYS
 10
1497.421115
 20
753.837713
 11
1498.042929
 21
754.201400
  0
LINE
  8
OBRYS
 10
1498.042929
 20
754.201400
 11
1498.800611
 21
754.499871
  0
LINE
  8
OBRYS
 10
1498.800611
 20
754.499871
 11
1499.665046
 21
754.721655
  0
LINE
  8
OBRYS
 10
1499.665046
 20
754.721655
 11
1500.603011
 21
754.858229
  0
LINE
  8
OBRYS
 10
1500.603011
 20
754.858229
 11
1501.578463
 21
754.904344
  0
ARC
  8
OBRYS
 10
1499.464753
 20
758.455704
 40
9.119291
 50
53.196826
 51
82.863340
  0
LINE
  8
OBRYS
 10
1504.927828
 20
765.757503
 11
1503.668583
 21
764.510937
  0
LINE
  8
OBRYS
 10
1506.196750
 20
777.202183
 11
1505.851131
 21
776.294904
  0
LINE
  8
OBRYS
 10
1505.851131
 20
776.294904
 11
1505.794144
 21
775.289306
  0
LINE
  8
OBRYS
 10
1505.794144
 20
775.289306
 11
1506.029307
 21
774.247465
  0
LINE
  8
OBRYS
 10
1506.029307
 20
774.247465
 11
1506.542104
 21
773.233694
  0
LINE
  8
OBRYS
 10
1506.542104
 20
773.233694
 11
1507.300880
 21
772.310573
  0
LINE
  8
OBRYS
 10
1507.300880
 20
772.310573
 11
1508.258796
 21
771.535084
  0
LINE
  8
OBRYS
 10
1508.258796
 20
771.535084
 11
1509.356720
 21
770.955100
  0
LINE
  8
OBRYS
 10
1509.356720
 20
770.955100
 11
1510.526877
 21
770.606423
  0
LINE
  8
OBRYS
 10
1510.526877
 20
770.606423
 11
1504.927828
 21
765.757503
  0
LINE
  8
OBRYS
 10
1526.578463
 20
862.497476
 11
1526.674536
 21
862.107349
  0
LINE
  8
OBRYS
 10
1526.674536
 20
862.107349
 11
1526.959065
 21
861.732215
  0
LINE
  8
OBRYS
 10
1526.959065
 20
861.732215
 11
1527.421115
 21
861.386488
  0
LINE
  8
OBRYS
 10
1527.421115
 20
861.386488
 11
1528.042929
 21
861.083457
  0
LINE
  8
OBRYS
 10
1528.042929
 20
861.083457
 11
1528.800611
 21
860.834765
  0
LINE
  8
OBRYS
 10
1528.800611
 20
860.834765
 11
1529.665046
 21
860.649971
  0
LINE
  8
OBRYS
 10
1529.665046
 20
860.649971
 11
1530.603011
 21
860.536175
  0
LINE
  8
OBRYS
 10
1530.603011
 20
860.536175
 11
1531.578463
 21
860.497751
  0
LINE
  8
OBRYS
 10
1531.578463
 20
860.497751
 11
1531.578463
 21
854.402265
  0
ARC
  8
OBRYS
 10
1531.167225
 20
849.804477
 40
4.616143
 50
84.888926
 51
173.756454
  0
LINE
  8
OBRYS
 10
1526.578463
 20
886.726048
 11
1526.674536
 21
886.146850
  0
LINE
  8
OBRYS
 10
1526.674536
 20
886.146850
 11
1526.959065
 21
885.589911
  0
LINE
  8
OBRYS
 10
1526.959065
 20
885.589911
 11
1527.421115
 21
885.076633
  0
LINE
  8
OBRYS
 10
1527.421115
 20
885.076633
 11
1528.042929
 21
884.626741
  0
LINE
  8
OBRYS
 10
1528.042929
 20
884.626741
 11
1528.800611
 21
884.257524
  0
LINE
  8
OBRYS
 10
1528.800611
 20
884.257524
 11
1529.665046
 21
883.983171
  0
LINE
  8
OBRYS
 10
1529.665046
 20
883.983171
 11
1530.603011
 21
883.814226
  0
LINE
  8
OBRYS
 10
1530.603011
 20
883.814226
 11
1531.578463
 21
883.757180
  0
LINE
  8
OBRYS
 10
1531.578463
 20
883.757180
 11
1531.578463
 21
860.497751
  0
LINE
  8
OBRYS
 10
1531.578463
 20
854.402265
 11
1531.578463
 21
840.891190
  0
ARC
  8
OBRYS
 10
1531.167225
 20
836.293401
 40
4.616143
 50
84.888926
 51
173.756454
  0
LINE
  8
OBRYS
 10
1513.997374
 20
790.713259
 11
1513.651754
 21
789.805979
  0
LINE
  8
OBRYS
 10
1513.651754
 20
789.805979
 11
1513.594767
 21
788.800382
  0
LINE
  8
OBRYS
 10
1513.594767
 20
788.800382
 11
1513.829930
 21
787.758541
  0
LINE
  8
OBRYS
 10
1513.829930
 20
787.758541
 11
1514.342727
 21
786.744770
  0
LINE
  8
OBRYS
 10
1514.342727
 20
786.744770
 11
1515.101503
 21
785.821648
  0
LINE
  8
OBRYS
 10
1515.101503
 20
785.821648
 11
1516.059419
 21
785.046160
  0
LINE
  8
OBRYS
 10
1516.059419
 20
785.046160
 11
1517.157343
 21
784.466176
  0
LINE
  8
OBRYS
 10
1517.157343
 20
784.466176
 11
1518.327501
 21
784.117499
  0
LINE
  8
OBRYS
 10
1518.327501
 20
784.117499
 11
1510.526877
 21
770.606423
  0
LINE
  8
OBRYS
 10
1561.578463
 20
770.606423
 11
1561.578463
 21
764.510937
  0
LINE
  8
OBRYS
 10
1503.668583
 20
764.510937
 11
1561.578463
 21
764.510937
  0
LINE
  8
OBRYS
 10
1510.526877
 20
770.606423
 11
1561.578463
 21
770.606423
  0
LINE
  8
OBRYS
 10
1561.578463
 20
860.497751
 11
1561.578463
 21
854.402265
  0
LINE
  8
OBRYS
 10
1531.578463
 20
854.402265
 11
1561.578463
 21
854.402265
  0
LINE
  8
OBRYS
 10
1531.578463
 20
860.497751
 11
1561.578463
 21
860.497751
  0
LINE
  8
OBRYS
 10
1501.578463
 20
741.251509
 11
1561.578463
 21
741.251509
  0
LINE
  8
OBRYS
 10
1501.578463
 20
754.904344
 11
1501.578463
 21
741.251509
  0
LINE
  8
OBRYS
 10
1561.578463
 20
764.510937
 11
1561.578463
 21
741.251509
  0
LINE
  8
OBRYS
 10
1531.578463
 20
883.757180
 11
1561.578463
 21
883.757180
  0
LINE
  8
OBRYS
 10
1561.578463
 20
883.757180
 11
1561.578463
 21
860.497751
  0
LINE
  8
OBRYS
 10
1496.578463
 20
738.282640
 11
1496.674536
 21
738.861838
  0
LINE
  8
OBRYS
 10
1496.674536
 20
738.861838
 11
1496.959065
 21
739.418777
  0
LINE
  8
OBRYS
 10
1496.959065
 20
739.418777
 11
1497.421115
 21
739.932055
  0
LINE
  8
OBRYS
 10
1497.421115
 20
739.932055
 11
1498.042929
 21
740.381947
  0
LINE
  8
OBRYS
 10
1498.042929
 20
740.381947
 11
1498.800611
 21
740.751164
  0
LINE
  8
OBRYS
 10
1498.800611
 20
740.751164
 11
1499.665046
 21
741.025517
  0
LINE
  8
OBRYS
 10
1499.665046
 20
741.025517
 11
1500.603011
 21
741.194463
  0
LINE
  8
OBRYS
 10
1500.603011
 20
741.194463
 11
1501.578463
 21
741.251509
  0
LINE
  8
OBRYS
 10
1518.327501
 20
784.117499
 11
1561.578463
 21
784.117499
  0
LINE
  8
OBRYS
 10
1561.578463
 20
784.117499
 11
1561.578463
 21
770.606423
  0
LINE
  8
OBRYS
 10
1531.578463
 20
840.891190
 11
1561.578463
 21
840.891190
  0
LINE
  8
OBRYS
 10
1561.578463
 20
854.402265
 11
1561.578463
 21
840.891190
  0
LINE
  8
OBRYS
 10
1561.578463
 20
741.251509
 11
1561.578463
 21
739.220377
  0
LINE
  8
OBRYS
 10
1561.578463
 20
885.788312
 11
1561.578463
 21
883.757180
  0
ARC
  8
OBRYS
 10
1530.337412
 20
835.209752
 40
15.140957
 50
255.625211
 51
274.701605
  0
ARC
  8
OBRYS
 10
1499.746427
 20
820.170368
 40
31.832076
 50
328.505575
 51
359.908877
  0
ARC
  8
OBRYS
 10
1519.002629
 20
792.166582
 40
13.840994
 50
55.263094
 51
75.110185
  0
LINE
  8
OBRYS
 10
1526.578463
 20
836.795429
 11
1526.674536
 21
836.546011
  0
LINE
  8
OBRYS
 10
1526.674536
 20
836.546011
 11
1526.959065
 21
836.306177
  0
LINE
  8
OBRYS
 10
1526.959065
 20
836.306177
 11
1527.421115
 21
836.085145
  0
LINE
  8
OBRYS
 10
1527.421115
 20
836.085145
 11
1528.042929
 21
835.891409
  0
LINE
  8
OBRYS
 10
1528.042929
 20
835.891409
 11
1528.800611
 21
835.732414
  0
LINE
  8
OBRYS
 10
1528.800611
 20
835.732414
 11
1529.665046
 21
835.614270
  0
LINE
  8
OBRYS
 10
1529.665046
 20
835.614270
 11
1530.603011
 21
835.541517
  0
LINE
  8
OBRYS
 10
1530.603011
 20
835.541517
 11
1531.578463
 21
835.516951
  0
LINE
  8
OBRYS
 10
1531.578463
 20
835.516951
 11
1531.578463
 21
820.119742
  0
LINE
  8
OBRYS
 10
1526.889352
 20
803.540795
 11
1518.327501
 21
789.491737
  0
LINE
  8
OBRYS
 10
1513.997374
 20
790.713259
 11
1514.167693
 21
790.846116
  0
LINE
  8
OBRYS
 10
1514.167693
 20
790.846116
 11
1514.472911
 21
790.893592
  0
LINE
  8
OBRYS
 10
1514.472911
 20
790.893592
 11
1514.903129
 21
790.854148
  0
LINE
  8
OBRYS
 10
1514.903129
 20
790.854148
 11
1515.444396
 21
790.729062
  0
LINE
  8
OBRYS
 10
1515.444396
 20
790.729062
 11
1516.079159
 21
790.522391
  0
LINE
  8
OBRYS
 10
1516.079159
 20
790.522391
 11
1516.786834
 21
790.240838
  0
LINE
  8
OBRYS
 10
1516.786834
 20
790.240838
 11
1517.544471
 21
789.893532
  0
LINE
  8
OBRYS
 10
1517.544471
 20
789.893532
 11
1518.327501
 21
789.491737
  0
LINE
  8
OBRYS
 10
1531.578463
 20
840.891190
 11
1531.578463
 21
835.516951
  0
LINE
  8
OBRYS
 10
1518.327501
 20
789.491737
 11
1518.327501
 21
784.117499
  0
LINE
  8
OBRYS
 10
1241.578463
 20
761.396674
 11
1186.578463
 21
761.396674
  0
LINE
  8
OBRYS
 10
1186.578463
 20
843.212015
 11
1241.578463
 21
843.212015
  0
LINE
  8
OBRYS
 10
1248.578463
 20
860.799848
 11
1247.578463
 21
860.875327
  0
LINE
  8
OBRYS
 10
1247.578463
 20
860.875327
 11
1247.578463
 21
859.149065
  0
LINE
  8
OBRYS
 10
1247.578463
 20
743.733361
 11
1248.578463
 21
743.808840
  0
LINE
  8
OBRYS
 10
1247.578463
 20
745.478207
 11
1247.578463
 21
743.733361
  0
LINE
  8
OBRYS
 10
1247.578463
 20
860.875327
 11
1186.578463
 21
860.875327
  0
LINE
  8
OBRYS
 10
1186.578463
 20
860.875327
 11
1186.578463
 21
843.212015
  0
LINE
  8
OBRYS
 10
1186.578463
 20
743.733361
 11
1247.578463
 21
743.733361
  0
LINE
  8
OBRYS
 10
1186.578463
 20
761.396674
 11
1186.578463
 21
743.733361
  0
LINE
  8
OBRYS
 10
1518.327501
 20
789.491737
 11
1561.578463
 21
789.491737
  0
LINE
  8
OBRYS
 10
1531.578463
 20
835.516951
 11
1561.578463
 21
835.516951
  0
LINE
  8
OBRYS
 10
1561.578463
 20
835.516951
 11
1561.578463
 21
789.491737
  0
LINE
  8
OBRYS
 10
1561.578463
 20
789.491737
 11
1561.578463
 21
784.117499
  0
LINE
  8
OBRYS
 10
1561.578463
 20
840.891190
 11
1561.578463
 21
835.516951
  0
LINE
  8
OBRYS
 10
1186.578463
 20
901.782997
 11
1247.578463
 21
901.782997
  0
LINE
  8
OBRYS
 10
1247.578463
 20
901.782997
 11
1248.578463
 21
902.408003
  0
LINE
  8
OBRYS
 10
1248.578463
 20
702.200685
 11
1247.578463
 21
702.825691
  0
LINE
  8
OBRYS
 10
1247.578463
 20
702.825691
 11
1186.578463
 21
702.825691
  0
LINE
  8
OBRYS
 10
1565.078463
 20
892.504344
 11
1565.078463
 21
732.504344
  0
ARC
  8
OBRYS
 10
1501.492697
 20
720.732474
 40
4.915038
 50
89.000160
 51
178.963983
  0
ARC
  8
OBRYS
 10
1531.492697
 20
904.276214
 40
4.915038
 50
181.036017
 51
270.999840
  0
LINE
  8
OBRYS
 10
1501.578463
 20
725.646764
 11
1561.578463
 21
725.646764
  0
LINE
  8
OBRYS
 10
1561.578463
 20
739.220377
 11
1561.578463
 21
725.646764
  0
LINE
  8
OBRYS
 10
1531.578463
 20
899.361925
 11
1561.578463
 21
899.361925
  0
LINE
  8
OBRYS
 10
1561.578463
 20
899.361925
 11
1561.578463
 21
885.788312
  0
LINE
  8
OBRYS
 10
1241.578463
 20
917.789286
 11
1241.578463
 21
925.789286
  0
LINE
  8
OBRYS
 10
1241.578463
 20
909.789286
 11
1241.578463
 21
917.789286
  0
LINE
  8
OBRYS
 10
1241.578463
 20
686.819403
 11
1241.578463
 21
694.819403
  0
LINE
  8
OBRYS
 10
1241.578463
 20
678.819403
 11
1241.578463
 21
686.819403
  0
LINE
  8
OBRYS
 10
1264.578463
 20
944.004344
 11
1260.578463
 21
944.004344
  0
LINE
  8
OBRYS
 10
1260.578463
 20
944.004344
 11
1261.078463
 21
944.504344
  0
LINE
  8
OBRYS
 10
1261.078463
 20
944.504344
 11
1265.078463
 21
944.504344
  0
LINE
  8
OBRYS
 10
1260.578463
 20
932.504344
 11
1263.244537
 21
932.504344
  0
LINE
  8
OBRYS
 10
1260.578463
 20
944.004344
 11
1260.578463
 21
932.504344
  0
LINE
  8
OBRYS
 10
1567.078463
 20
812.504344
 11
1567.078463
 21
852.504344
  0
LINE
  8
OBRYS
 10
1567.078463
 20
772.504344
 11
1567.078463
 21
812.504344
  0
LINE
  8
OBRYS
 10
1569.078463
 20
812.504344
 11
1569.078463
 21
851.776404
  0
LINE
  8
OBRYS
 10
1569.078463
 20
773.232285
 11
1569.078463
 21
812.504344
  0
LINE
  8
OBRYS
 10
1683.976215
 20
842.473975
 11
1684.038090
 21
842.492257
  0
LINE
  8
OBRYS
 10
1684.038090
 20
842.492257
 11
1683.303631
 21
842.281070
  0
LINE
  8
OBRYS
 10
1683.303631
 20
842.281070
 11
1681.706987
 21
841.880139
  0
LINE
  8
OBRYS
 10
1681.706987
 20
841.880139
 11
1679.320373
 21
841.435189
  0
LINE
  8
OBRYS
 10
1679.320373
 20
841.435189
 11
1676.408643
 21
841.153417
  0
LINE
  8
OBRYS
 10
1676.408643
 20
841.153417
 11
1675.078463
 21
841.122520
  0
ARC
  8
OBRYS
 10
1583.403837
 20
873.231112
 40
32.110240
 50
253.307616
 51
269.419409
  0
LINE
  8
OBRYS
 10
1675.078463
 20
841.122520
 11
1583.078463
 21
841.122520
  0
LINE
  8
OBRYS
 10
1688.078463
 20
812.504344
 11
1688.078463
 21
842.504344
  0
LINE
  8
OBRYS
 10
1688.078463
 20
782.504344
 11
1688.078463
 21
812.504344
  0
LINE
  8
OBRYS
 10
1689.078463
 20
812.504344
 11
1689.078463
 21
841.504344
  0
LINE
  8
OBRYS
 10
1689.078463
 20
783.504344
 11
1689.078463
 21
812.504344
  0
ARC
  8
OBRYS
 10
1353.578463
 20
954.497007
 40
5.936890
 50
193.890925
 51
346.109075
  0
ARC
  8
OBRYS
 10
1500.337958
 20
706.588146
 40
14.721335
 50
85.166194
 51
104.795945
  0
LINE
  8
OBRYS
 10
1501.578463
 20
721.257121
 11
1501.578463
 21
697.790916
  0
ARC
  8
OBRYS
 10
1500.337958
 20
683.121941
 40
14.721335
 50
85.166194
 51
104.795945
  0
LINE
  8
OBRYS
 10
1501.578463
 20
725.646764
 11
1501.578463
 21
721.257121
  0
ARC
  8
OBRYS
 10
1530.337958
 20
918.420543
 40
14.721335
 50
255.204055
 51
274.833806
  0
LINE
  8
OBRYS
 10
1531.578463
 20
903.751567
 11
1531.578463
 21
899.361925
  0
ARC
  8
OBRYS
 10
1530.337958
 20
942.609098
 40
14.721335
 50
255.204055
 51
274.833806
  0
LINE
  8
OBRYS
 10
1531.578463
 20
927.940123
 11
1531.578463
 21
903.751567
  0
LINE
  8
OBRYS
 10
1501.578463
 20
721.257121
 11
1561.578463
 21
721.257121
  0
LINE
  8
OBRYS
 10
1561.578463
 20
725.646764
 11
1561.578463
 21
721.257121
  0
LINE
  8
OBRYS
 10
1531.578463
 20
903.751567
 11
1561.578463
 21
903.751567
  0
LINE
  8
OBRYS
 10
1561.578463
 20
903.751567
 11
1561.578463
 21
899.361925
  0
LINE
  8
OBRYS
 10
1501.578463
 20
697.790916
 11
1501.578463
 21
693.258102
  0
ARC
  8
OBRYS
 10
1501.562809
 20
688.273755
 40
4.984371
 50
89.820056
 51
179.818919
  0
LINE
  8
OBRYS
 10
1531.578463
 20
932.504344
 11
1531.578463
 21
927.940123
  0
LINE
  8
OBRYS
 10
1526.578463
 20
932.504344
 11
1531.578463
 21
932.504344
  0
LINE
  8
OBRYS
 10
1501.578463
 20
697.790916
 11
1561.578463
 21
697.790916
  0
LINE
  8
OBRYS
 10
1561.578463
 20
721.257121
 11
1561.578463
 21
697.790916
  0
LINE
  8
OBRYS
 10
1531.578463
 20
927.940123
 11
1561.578463
 21
927.940123
  0
LINE
  8
OBRYS
 10
1561.578463
 20
927.940123
 11
1561.578463
 21
903.751567
  0
LINE
  8
OBRYS
 10
1501.578463
 20
693.258102
 11
1561.578463
 21
693.258102
  0
LINE
  8
OBRYS
 10
1561.578463
 20
697.790916
 11
1561.578463
 21
693.258102
  0
LINE
  8
OBRYS
 10
1561.578463
 20
932.504344
 11
1561.578463
 21
927.940123
  0
LINE
  8
OBRYS
 10
1531.578463
 20
932.504344
 11
1561.578463
 21
932.504344
  0
ARC
  8
OBRYS
 10
1360.947173
 20
955.047416
 40
2.545755
 50
230.902846
 51
256.295017
  0
ARC
  8
OBRYS
 10
1353.578463
 20
953.739416
 40
6.865181
 50
189.772509
 51
350.227491
  0
ARC
  8
OBRYS
 10
1346.209752
 20
955.047416
 40
2.545755
 50
283.704983
 51
309.097154
  0
ARC
  8
OBRYS
 10
1349.410525
 20
954.159045
 40
3.042954
 50
173.484321
 51
211.388815
  0
LINE
  8
OBRYS
 10
1360.344026
 20
952.574143
 11
1360.629441
 21
953.247055
  0
LINE
  8
OBRYS
 10
1360.629441
 20
953.247055
 11
1360.800324
 21
953.832274
  0
LINE
  8
OBRYS
 10
1360.800324
 20
953.832274
 11
1360.834755
 21
954.262991
  0
LINE
  8
OBRYS
 10
1360.834755
 20
954.262991
 11
1360.786431
 21
954.481052
  0
LINE
  8
OBRYS
 10
1360.786431
 20
954.481052
 11
1360.769700
 21
954.504344
  0
LINE
  8
OBRYS
 10
1561.578463
 20
693.258102
 11
1561.578463
 21
692.504344
  0
LINE
  8
OBRYS
 10
1340.859048
 20
954.504344
 11
1346.387225
 21
954.504344
  0
LINE
  8
OBRYS
 10
1360.769700
 20
954.504344
 11
1366.297877
 21
954.504344
  0
LINE
  8
OBRYS
 10
1247.578463
 20
902.304344
 11
1247.578463
 21
901.782997
  0
LINE
  8
OBRYS
 10
1186.578463
 20
902.304344
 11
1186.578463
 21
901.782997
  0
LINE
  8
OBRYS
 10
1247.578463
 20
702.825691
 11
1247.578463
 21
702.304344
  0
LINE
  8
OBRYS
 10
1186.578463
 20
702.825691
 11
1186.578463
 21
702.304344
  0
LINE
  8
OBRYS
 10
1583.078463
 20
846.504344
 11
1583.078463
 21
841.122520
  0
LINE
  8
OBRYS
 10
1574.078463
 20
846.504344
 11
1583.078463
 21
846.504344
  0
LINE
  8
OBRYS
 10
1675.078463
 20
846.504344
 11
1675.078463
 21
841.122520
  0
LINE
  8
OBRYS
 10
1583.078463
 20
846.504344
 11
1675.078463
 21
846.504344
  0
LINE
  8
OBRYS
 10
1675.078463
 20
846.504344
 11
1684.078463
 21
846.504344
  0
LINE
  8
OBRYS
 10
1265.078463
 20
949.504344
 11
1270.078463
 21
949.504344
  0
LINE
  8
OBRYS
 10
1516.578463
 20
949.504344
 11
1522.078463
 21
949.504344
  0
LINE
  8
OBRYS
 10
1512.078463
 20
949.504344
 11
1516.578463
 21
949.504344
  0
LINE
  8
OBRYS
 10
1501.403965
 20
688.741488
 11
1500.459850
 21
688.712042
  0
LINE
  8
OBRYS
 10
1500.459850
 20
688.712042
 11
1499.556302
 21
688.640521
  0
LINE
  8
OBRYS
 10
1499.556302
 20
688.640521
 11
1498.726091
 21
688.529520
  0
LINE
  8
OBRYS
 10
1498.726091
 20
688.529520
 11
1497.999324
 21
688.383063
  0
LINE
  8
OBRYS
 10
1497.999324
 20
688.383063
 11
1497.402358
 21
688.206463
  0
LINE
  8
OBRYS
 10
1497.402358
 20
688.206463
 11
1496.956843
 21
688.006123
  0
LINE
  8
OBRYS
 10
1496.956843
 20
688.006123
 11
1496.678937
 21
687.789311
  0
LINE
  8
OBRYS
 10
1496.678937
 20
687.789311
 11
1496.578717
 21
687.563887
  0
LINE
  8
OBRYS
 10
1504.752960
 20
688.769330
 11
1504.752960
 21
688.801387
  0
LINE
  8
OBRYS
 10
1504.752960
 20
688.769330
 11
1501.403965
 21
688.741488
  0
ARC
  8
OBRYS
 10
1512.058394
 20
690.040998
 40
2.480009
 50
96.645493
 51
180.455060
  0
LINE
  8
OBRYS
 10
1509.578463
 20
690.021301
 11
1509.486599
 21
689.788389
  0
LINE
  8
OBRYS
 10
1509.486599
 20
689.788389
 11
1509.214382
 21
689.564035
  0
LINE
  8
OBRYS
 10
1509.214382
 20
689.564035
 11
1508.771816
 21
689.356483
  0
LINE
  8
OBRYS
 10
1508.771816
 20
689.356483
 11
1508.175162
 21
689.173361
  0
LINE
  8
OBRYS
 10
1508.175162
 20
689.173361
 11
1507.446345
 21
689.021397
  0
LINE
  8
OBRYS
 10
1507.446345
 20
689.021397
 11
1506.612146
 21
688.906175
  0
LINE
  8
OBRYS
 10
1506.612146
 20
688.906175
 11
1505.703218
 21
688.831929
  0
LINE
  8
OBRYS
 10
1505.703218
 20
688.831929
 11
1504.752960
 21
688.801387
  0
LINE
  8
OBRYS
 10
1509.578463
 20
690.021301
 11
1509.578463
 21
689.958936
  0
LINE
  8
OBRYS
 10
1509.578463
 20
689.958936
 11
1509.486599
 21
689.731810
  0
LINE
  8
OBRYS
 10
1509.486599
 20
689.731810
 11
1509.214382
 21
689.513030
  0
LINE
  8
OBRYS
 10
1509.214382
 20
689.513030
 11
1508.771816
 21
689.310635
  0
LINE
  8
OBRYS
 10
1508.771816
 20
689.310635
 11
1508.175162
 21
689.132063
  0
LINE
  8
OBRYS
 10
1508.175162
 20
689.132063
 11
1507.446345
 21
688.983874
  0
LINE
  8
OBRYS
 10
1507.446345
 20
688.983874
 11
1506.612146
 21
688.871515
  0
LINE
  8
OBRYS
 10
1506.612146
 20
688.871515
 11
1505.703218
 21
688.799113
  0
LINE
  8
OBRYS
 10
1505.703218
 20
688.799113
 11
1504.752960
 21
688.769330
  0
LINE
  8
OBRYS
 10
1509.578463
 20
689.958936
 11
1509.578463
 21
654.363229
  0
LINE
  8
OBRYS
 10
1489.578463
 20
946.004344
 11
1500.078463
 21
946.004344
  0
LINE
  8
OBRYS
 10
1477.078463
 20
946.004344
 11
1489.578463
 21
946.004344
  0
LINE
  8
OBRYS
 10
1489.578463
 20
954.004344
 11
1499.328463
 21
954.004344
  0
LINE
  8
OBRYS
 10
1479.828463
 20
954.004344
 11
1489.578463
 21
954.004344
  0
LINE
  8
OBRYS
 10
1156.578463
 20
802.304344
 11
1156.578463
 21
952.304344
  0
LINE
  8
OBRYS
 10
1156.578463
 20
652.304344
 11
1156.578463
 21
802.304344
  0
LINE
  8
OBRYS
 10
1174.578463
 20
802.304344
 11
1174.578463
 21
949.744393
  0
LINE
  8
OBRYS
 10
1174.578463
 20
654.864296
 11
1174.578463
 21
802.304344
  0
LINE
  8
OBRYS
 10
1186.578463
 20
802.304344
 11
1186.578463
 21
902.304344
  0
LINE
  8
OBRYS
 10
1186.578463
 20
702.304344
 11
1186.578463
 21
802.304344
  0
ARC
  8
OBRYS
 10
1260.594084
 20
642.441717
 40
4.994308
 50
271.995356
 51
341.932265
  0
ARC
  8
OBRYS
 10
1501.562227
 20
642.439878
 40
4.992449
 50
195.868648
 51
268.010950
  0
LINE
  8
OBRYS
 10
1250.508664
 20
941.952699
 11
1250.508664
 21
662.655989
  0
LINE
  8
OBRYS
 10
1242.578463
 20
754.478207
 11
1242.578463
 21
745.478207
  0
LINE
  8
OBRYS
 10
1242.578463
 20
763.478207
 11
1242.578463
 21
754.478207
  0
LINE
  8
OBRYS
 10
1242.578463
 20
850.149065
 11
1242.578463
 21
841.149065
  0
LINE
  8
OBRYS
 10
1242.578463
 20
859.149065
 11
1242.578463
 21
850.149065
  0
LINE
  8
OBRYS
 10
1275.578463
 20
948.504344
 11
1269.078463
 21
948.504344
  0
LINE
  8
OBRYS
 10
1282.078463
 20
948.504344
 11
1275.578463
 21
948.504344
  0
LINE
  8
OBRYS
 10
1393.578463
 20
948.504344
 11
1387.078463
 21
948.504344
  0
LINE
  8
OBRYS
 10
1400.078463
 20
948.504344
 11
1393.578463
 21
948.504344
  0
LINE
  8
OBRYS
 10
1506.578463
 20
948.504344
 11
1500.078463
 21
948.504344
  0
LINE
  8
OBRYS
 10
1513.078463
 20
948.504344
 11
1506.578463
 21
948.504344
  0
LINE
  8
OBRYS
 10
1501.578463
 20
741.251509
 11
1501.578463
 21
739.220377
  0
LINE
  8
OBRYS
 10
1531.578463
 20
885.788312
 11
1531.578463
 21
883.757180
  0
LINE
  8
OBRYS
 10
1501.578463
 20
739.220377
 11
1501.578463
 21
725.646764
  0
LINE
  8
OBRYS
 10
1531.578463
 20
899.361925
 11
1531.578463
 21
885.788312
  0
LINE
  8
OBRYS
 10
1242.578463
 20
917.789286
 11
1242.578463
 21
908.789286
  0
LINE
  8
OBRYS
 10
1242.578463
 20
926.789286
 11
1242.578463
 21
917.789286
  0
LINE
  8
OBRYS
 10
1242.578463
 20
686.819403
 11
1242.578463
 21
677.819403
  0
LINE
  8
OBRYS
 10
1242.578463
 20
695.819403
 11
1242.578463
 21
686.819403
  0
ARC
  8
OBRYS
 10
1351.505550
 20
954.414505
 40
3.927056
 50
175.788440
 51
199.994725
  0
ARC
  8
OBRYS
 10
1353.606774
 20
954.681239
 40
5.956529
 50
344.323112
 51
1.354392
  0
LINE
  8
OBRYS
 10
1346.812899
 20
952.574143
 11
1338.860266
 21
952.574143
  0
LINE
  8
OBRYS
 10
1368.296659
 20
952.574143
 11
1360.344026
 21
952.574143
  0
LINE
  8
OBRYS
 10
1501.578463
 20
693.258102
 11
1501.578463
 21
692.504344
  0
LINE
  8
OBRYS
 10
1346.611338
 20
954.518020
 11
1346.387225
 21
954.504344
  0
LINE
  8
OBRYS
 10
1360.769700
 20
954.504344
 11
1360.621182
 21
954.510339
  0
LINE
  8
OBRYS
 10
1269.078463
 20
948.504344
 11
1264.078463
 21
948.504344
  0
LINE
  8
OBRYS
 10
1516.578463
 20
948.504344
 11
1513.078463
 21
948.504344
  0
LINE
  8
OBRYS
 10
1523.078463
 20
948.504344
 11
1516.578463
 21
948.504344
  0
LINE
  8
OBRYS
 10
1501.403965
 20
692.501298
 11
1501.403965
 21
688.741488
  0
LINE
  8
OBRYS
 10
1501.403965
 20
688.741488
 11
1501.403965
 21
649.249325
  0
LINE
  8
OBRYS
 10
1504.752960
 20
688.801387
 11
1504.887174
 21
689.533735
  0
LINE
  8
OBRYS
 10
1504.887174
 20
689.533735
 11
1505.114051
 21
689.990567
  0
LINE
  8
OBRYS
 10
1505.114051
 20
689.990567
 11
1506.061476
 21
690.984726
  0
LINE
  8
OBRYS
 10
1506.061476
 20
690.984726
 11
1508.208991
 21
692.074033
  0
LINE
  8
OBRYS
 10
1508.208991
 20
692.074033
 11
1509.863971
 21
692.504344
  0
LINE
  8
OBRYS
 10
1504.752960
 20
649.366274
 11
1504.752960
 21
688.769330
  0
LINE
  8
OBRYS
 10
1489.578463
 20
953.254344
 11
1479.078463
 21
953.254344
  0
LINE
  8
OBRYS
 10
1500.078463
 20
953.254344
 11
1489.578463
 21
953.254344
  0
LINE
  8
OBRYS
 10
1498.501390
 20
763.072042
 11
1498.883457
 21
764.036327
  0
LINE
  8
OBRYS
 10
1172.648262
 20
802.304344
 11
1172.648262
 21
951.743174
  0
LINE
  8
OBRYS
 10
1172.648262
 20
652.865514
 11
1172.648262
 21
802.304344
  0
LINE
  8
OBRYS
 10
1177.473764
 20
802.304344
 11
1177.473764
 21
902.622287
  0
LINE
  8
OBRYS
 10
1177.473764
 20
701.986401
 11
1177.473764
 21
802.304344
  0
ARC
  8
OBRYS
 10
483.694206
 20
657.304344
 40
5.000000
 50
90.000000
 51
180.000000
  0
LINE
  8
OBRYS
 10
483.694206
 20
662.304344
 11
493.764005
 21
662.655989
  0
LINE
  8
OBRYS
 10
493.764005
 20
941.952699
 11
483.694206
 21
942.304344
  0
ARC
  8
OBRYS
 10
493.694206
 20
939.953917
 40
2.000000
 50
0.000000
 51
88.000000
  0
ARC
  8
OBRYS
 10
493.694206
 20
664.654771
 40
2.000000
 50
272.000000
 51
360.000000
  0
LINE
  8
OBRYS
 10
495.694206
 20
841.130482
 11
501.694206
 21
841.130482
  0
LINE
  8
OBRYS
 10
501.694206
 20
859.130482
 11
495.694206
 21
859.130482
  0
ARC
  8
OBRYS
 10
501.694206
 20
858.130482
 40
1.000000
 50
0.000000
 51
90.000000
  0
ARC
  8
OBRYS
 10
501.694206
 20
842.130482
 40
1.000000
 50
270.000000
 51
360.000000
  0
ARC
  8
OBRYS
 10
501.694206
 20
762.459624
 40
1.000000
 50
0.000000
 51
90.000000
  0
ARC
  8
OBRYS
 10
501.694206
 20
746.459624
 40
1.000000
 50
270.000000
 51
360.000000
  0
LINE
  8
OBRYS
 10
495.694206
 20
745.459624
 11
501.694206
 21
745.459624
  0
LINE
  8
OBRYS
 10
501.694206
 20
763.459624
 11
495.694206
 21
763.459624
  0
ARC
  8
OBRYS
 10
463.194206
 20
948.504344
 40
1.000000
 50
90.000000
 51
180.000000
  0
ARC
  8
OBRYS
 10
474.194206
 20
948.504344
 40
1.000000
 50
0.000000
 51
90.000000
  0
LINE
  8
OBRYS
 10
475.194206
 20
944.504344
 11
475.194206
 21
948.504344
  0
LINE
  8
OBRYS
 10
462.194206
 20
948.504344
 11
462.194206
 21
944.504344
  0
ARC
  8
OBRYS
 10
345.194206
 20
948.504344
 40
1.000000
 50
90.000000
 51
180.000000
  0
ARC
  8
OBRYS
 10
356.194206
 20
948.504344
 40
1.000000
 50
0.000000
 51
90.000000
  0
LINE
  8
OBRYS
 10
357.194206
 20
944.504344
 11
357.194206
 21
948.504344
  0
LINE
  8
OBRYS
 10
344.194206
 20
948.504344
 11
344.194206
 21
944.504344
  0
ARC
  8
OBRYS
 10
232.194206
 20
948.504344
 40
1.000000
 50
90.000000
 51
180.000000
  0
ARC
  8
OBRYS
 10
243.194206
 20
948.504344
 40
1.000000
 50
0.000000
 51
90.000000
  0
LINE
  8
OBRYS
 10
244.194206
 20
944.504344
 11
244.194206
 21
948.504344
  0
LINE
  8
OBRYS
 10
231.194206
 20
948.504344
 11
231.194206
 21
944.504344
  0
ARC
  8
OBRYS
 10
242.694206
 20
644.252371
 40
5.000000
 50
0.000000
 51
88.000000
  0
LINE
  8
OBRYS
 10
239.519709
 20
649.366274
 11
242.868703
 21
649.249325
  0
ARC
  8
OBRYS
 10
239.694206
 20
654.363229
 40
5.000000
 50
180.000000
 51
268.000000
  0
ARC
  8
OBRYS
 10
212.694206
 20
890.788312
 40
5.000000
 50
270.000000
 51
360.000000
  0
ARC
  8
OBRYS
 10
232.206773
 20
736.749547
 40
2.504314
 50
351.680826
 51
101.826814
  0
LINE
  8
OBRYS
 10
182.694206
 20
739.220377
 11
231.694206
 21
739.220509
  0
LINE
  8
OBRYS
 10
212.694206
 20
885.788312
 11
182.694206
 21
885.788312
  0
LINE
  8
OBRYS
 10
182.694206
 20
892.504344
 11
179.194206
 21
892.504344
  0
LINE
  8
OBRYS
 10
179.194206
 20
732.504344
 11
182.694206
 21
732.504344
  0
LINE
  8
OBRYS
 10
267.194206
 20
944.504344
 11
267.194206
 21
946.004344
  0
LINE
  8
OBRYS
 10
265.194206
 20
946.004344
 11
265.194206
 21
953.254344
  0
LINE
  8
OBRYS
 10
244.194206
 20
953.254344
 11
244.194206
 21
948.504344
  0
ARC
  8
OBRYS
 10
244.944206
 20
953.254344
 40
0.750000
 50
90.000000
 51
180.000000
  0
ARC
  8
OBRYS
 10
264.444206
 20
953.254344
 40
0.750000
 50
0.000000
 51
90.000000
  0
ARC
  8
OBRYS
 10
501.694206
 20
925.789286
 40
1.000000
 50
0.000000
 51
90.000000
  0
ARC
  8
OBRYS
 10
501.694206
 20
909.789286
 40
1.000000
 50
270.000000
 51
360.000000
  0
LINE
  8
OBRYS
 10
495.694206
 20
908.789286
 11
501.694206
 21
908.789286
  0
LINE
  8
OBRYS
 10
501.694206
 20
926.789286
 11
495.694206
 21
926.789286
  0
ARC
  8
OBRYS
 10
501.694206
 20
694.819403
 40
1.000000
 50
0.000000
 51
90.000000
  0
ARC
  8
OBRYS
 10
501.694206
 20
678.819403
 40
1.000000
 50
270.000000
 51
360.000000
  0
LINE
  8
OBRYS
 10
495.694206
 20
677.819403
 11
501.694206
 21
677.819403
  0
LINE
  8
OBRYS
 10
501.694206
 20
695.819403
 11
495.694206
 21
695.819403
  0
LINE
  8
OBRYS
 10
179.194206
 20
852.504344
 11
177.194206
 21
852.504344
  0
LINE
  8
OBRYS
 10
177.194206
 20
772.504344
 11
179.194206
 21
772.504344
  0
LINE
  8
OBRYS
 10
177.194206
 20
852.504344
 11
175.194206
 21
851.776404
  0
LINE
  8
OBRYS
 10
175.194206
 20
773.232285
 11
177.194206
 21
772.504344
  0
LINE
  8
OBRYS
 10
60.296453
 20
842.504344
 11
56.194206
 21
842.504344
  0
LINE
  8
OBRYS
 10
175.194206
 20
842.504344
 11
170.091959
 21
842.504344
  0
LINE
  8
OBRYS
 10
56.194206
 20
782.504344
 11
175.194206
 21
782.504344
  0
LINE
  8
OBRYS
 10
56.194206
 20
842.504344
 11
55.194206
 21
841.504344
  0
LINE
  8
OBRYS
 10
55.194206
 20
783.504344
 11
56.194206
 21
782.504344
  0
ARC
  8
OBRYS
 10
390.694206
 20
991.504344
 40
6.000000
 50
0.000000
 51
180.000000
  0
LINE
  8
OBRYS
 10
396.694206
 20
954.731183
 11
396.694206
 21
991.504344
  0
LINE
  8
OBRYS
 10
384.694206
 20
991.504344
 11
384.694206
 21
954.730931
  0
LINE
  8
OBRYS
 10
405.694206
 20
944.504344
 11
405.412402
 21
952.574143
  0
LINE
  8
OBRYS
 10
375.976010
 20
952.574143
 11
375.694206
 21
944.504344
  0
ARC
  8
OBRYS
 10
383.617398
 20
955.806988
 40
1.283832
 50
264.642948
 51
316.626471
  0
LINE
  8
OBRYS
 10
397.879059
 20
954.539229
 11
397.592377
 21
954.530383
  0
LINE
  8
OBRYS
 10
397.592377
 20
954.530383
 11
397.061090
 21
954.733161
  0
LINE
  8
OBRYS
 10
397.061090
 20
954.733161
 11
396.769188
 21
954.979503
  0
LINE
  8
OBRYS
 10
396.769188
 20
954.979503
 11
396.659716
 21
955.142303
  0
LINE
  8
OBRYS
 10
396.659716
 20
955.142303
 11
396.660021
 21
955.136146
  0
LINE
  8
OBRYS
 10
182.694206
 20
692.504344
 11
232.501276
 21
692.504344
  0
ARC
  8
OBRYS
 10
377.974791
 20
952.504344
 40
2.000000
 50
90.000000
 51
178.000000
  0
ARC
  8
OBRYS
 10
403.413621
 20
952.504344
 40
2.000000
 50
2.000000
 51
90.000000
  0
LINE
  8
OBRYS
 10
496.694206
 20
702.304344
 11
557.694206
 21
702.304344
  0
LINE
  8
OBRYS
 10
495.694206
 20
701.726994
 11
496.694206
 21
702.304344
  0
LINE
  8
OBRYS
 10
557.694206
 20
902.304344
 11
496.694206
 21
902.304344
  0
LINE
  8
OBRYS
 10
496.694206
 20
902.304344
 11
495.694206
 21
902.881694
  0
LINE
  8
OBRYS
 10
170.194206
 20
842.474120
 11
170.194206
 21
846.504344
  0
LINE
  8
OBRYS
 10
60.194206
 20
846.504344
 11
60.194206
 21
842.474120
  0
ARC
  8
OBRYS
 10
479.194206
 20
948.504344
 40
1.000000
 50
0.000000
 51
90.000000
  0
LINE
  8
OBRYS
 10
480.194206
 20
944.504344
 11
480.194206
 21
948.504344
  0
ARC
  8
OBRYS
 10
222.194206
 20
948.504344
 40
1.000000
 50
90.000000
 51
180.000000
  0
LINE
  8
OBRYS
 10
221.194206
 20
948.504344
 11
221.194206
 21
944.504344
  0
LINE
  8
OBRYS
 10
397.879786
 20
954.541611
 11
397.673297
 21
954.547252
  0
LINE
  8
OBRYS
 10
587.694206
 20
952.304344
 11
571.624407
 21
951.743174
  0
LINE
  8
OBRYS
 10
571.624407
 20
652.865514
 11
587.694206
 21
652.304344
  0
ARC
  8
OBRYS
 10
571.694206
 20
949.744393
 40
2.000000
 50
92.000000
 51
180.000000
  0
ARC
  8
OBRYS
 10
571.694206
 20
654.864296
 40
2.000000
 50
180.000000
 51
268.000000
  0
ARC
  8
OBRYS
 10
566.694206
 20
905.620460
 40
3.000000
 50
272.000000
 51
360.000000
  0
ARC
  8
OBRYS
 10
566.694206
 20
698.988229
 40
3.000000
 50
0.000000
 51
88.000000
  0
LINE
  8
OBRYS
 10
566.798904
 20
902.622287
 11
557.694206
 21
902.304344
  0
LINE
  8
OBRYS
 10
557.694206
 20
702.304344
 11
566.798904
 21
701.986401
  0
CIRCLE
  8
OBRYS
 10
450.694206
 20
612.504344
 40
9.500000
  0
CIRCLE
  8
OBRYS
 10
450.694206
 20
612.504344
 40
10.500000
  0
LINE
  8
OBRYS
 10
450.694206
 20
617.123146
 11
446.694206
 21
614.813745
  0
LINE
  8
OBRYS
 10
446.694206
 20
614.813745
 11
446.694206
 21
610.194943
  0
LINE
  8
OBRYS
 10
446.694206
 20
610.194943
 11
450.694206
 21
607.885542
  0
LINE
  8
OBRYS
 10
450.694206
 20
607.885542
 11
454.694206
 21
610.194943
  0
LINE
  8
OBRYS
 10
454.694206
 20
610.194943
 11
454.694206
 21
614.813745
  0
LINE
  8
OBRYS
 10
454.694206
 20
614.813745
 11
450.694206
 21
617.123146
  0
ARC
  8
OBRYS
 10
255.234103
 20
660.609900
 40
26.246765
 50
241.930079
 51
258.552746
  0
LINE
  8
OBRYS
 10
247.525088
 20
641.120104
 11
247.602700
 21
641.453918
  0
LINE
  8
OBRYS
 10
247.602700
 20
641.453918
 11
247.694206
 21
642.396530
  0
LINE
  8
OBRYS
 10
247.694206
 20
642.396530
 11
247.803890
 21
641.901419
  0
LINE
  8
OBRYS
 10
247.803890
 20
641.901419
 11
248.327462
 21
640.620695
  0
LINE
  8
OBRYS
 10
248.327462
 20
640.620695
 11
249.561823
 21
638.468805
  0
LINE
  8
OBRYS
 10
249.561823
 20
638.468805
 11
250.592362
 21
637.383997
  0
LINE
  8
OBRYS
 10
250.592362
 20
637.383997
 11
251.100372
 21
637.147553
  0
LINE
  8
OBRYS
 10
251.100372
 20
637.147553
 11
251.360815
 21
637.110603
  0
LINE
  8
OBRYS
 10
251.360815
 20
637.110603
 11
251.878709
 21
637.201223
  0
LINE
  8
OBRYS
 10
251.878709
 20
637.201223
 11
252.166982
 21
637.337256
  0
LINE
  8
OBRYS
 10
252.166982
 20
637.337256
 11
252.694206
 21
637.714398
  0
ARC
  8
OBRYS
 10
246.998408
 20
640.414425
 40
6.303353
 50
298.695784
 51
334.637248
  0
ARC
  8
OBRYS
 10
285.177811
 20
595.679002
 40
53.001862
 50
134.010754
 51
135.989246
  0
LINE
  8
OBRYS
 10
247.058373
 20
632.504344
 11
191.400111
 21
632.504344
  0
LINE
  8
OBRYS
 10
192.694206
 20
637.504344
 11
192.441741
 21
637.408271
  0
LINE
  8
OBRYS
 10
192.441741
 20
637.408271
 11
192.198977
 21
637.123742
  0
LINE
  8
OBRYS
 10
192.198977
 20
637.123742
 11
191.975245
 21
636.661692
  0
LINE
  8
OBRYS
 10
191.975245
 20
636.661692
 11
191.779142
 21
636.039878
  0
LINE
  8
OBRYS
 10
191.779142
 20
636.039878
 11
191.618205
 21
635.282195
  0
LINE
  8
OBRYS
 10
191.618205
 20
635.282195
 11
191.498618
 21
634.417761
  0
LINE
  8
OBRYS
 10
191.498618
 20
634.417761
 11
191.424976
 21
633.479796
  0
LINE
  8
OBRYS
 10
191.424976
 20
633.479796
 11
191.400111
 21
632.504344
  0
LINE
  8
OBRYS
 10
192.694206
 20
637.504344
 11
242.694206
 21
637.504344
  0
ARC
  8
OBRYS
 10
242.691035
 20
637.133112
 40
0.371246
 50
58.732960
 51
89.510607
  0
ARC
  8
OBRYS
 10
252.397832
 20
629.403160
 40
5.973562
 50
113.404438
 51
132.626102
  0
LINE
  8
OBRYS
 10
483.694206
 20
637.504344
 11
547.694206
 21
637.504344
  0
LINE
  8
OBRYS
 10
547.694206
 20
637.504344
 11
547.946671
 21
637.408271
  0
LINE
  8
OBRYS
 10
547.946671
 20
637.408271
 11
548.189435
 21
637.123742
  0
LINE
  8
OBRYS
 10
548.189435
 20
637.123742
 11
548.413167
 21
636.661692
  0
LINE
  8
OBRYS
 10
548.413167
 20
636.661692
 11
548.609270
 21
636.039878
  0
LINE
  8
OBRYS
 10
548.609270
 20
636.039878
 11
548.770207
 21
635.282195
  0
LINE
  8
OBRYS
 10
548.770207
 20
635.282195
 11
548.889794
 21
634.417761
  0
LINE
  8
OBRYS
 10
548.889794
 20
634.417761
 11
548.963436
 21
633.479796
  0
LINE
  8
OBRYS
 10
548.963436
 20
633.479796
 11
548.988301
 21
632.504344
  0
LINE
  8
OBRYS
 10
548.988301
 20
632.504344
 11
479.330039
 21
632.504344
  0
ARC
  8
OBRYS
 10
441.210601
 20
595.679002
 40
53.001862
 50
44.010754
 51
45.989246
  0
ARC
  8
OBRYS
 10
473.540720
 20
628.710841
 40
6.789012
 50
48.537316
 51
65.432144
  0
ARC
  8
OBRYS
 10
471.297633
 20
660.210896
 40
25.827325
 50
281.311299
 51
298.205877
  0
ARC
  8
OBRYS
 10
483.702124
 20
637.116423
 40
0.388001
 50
91.169309
 51
120.587124
  0
LINE
  8
OBRYS
 10
473.694206
 20
637.714398
 11
474.290954
 21
637.299394
  0
LINE
  8
OBRYS
 10
474.290954
 20
637.299394
 11
474.841567
 21
637.118778
  0
LINE
  8
OBRYS
 10
474.841567
 20
637.118778
 11
475.149541
 21
637.120788
  0
LINE
  8
OBRYS
 10
475.149541
 20
637.120788
 11
475.667822
 21
637.304094
  0
LINE
  8
OBRYS
 10
475.667822
 20
637.304094
 11
475.944507
 21
637.492958
  0
LINE
  8
OBRYS
 10
475.944507
 20
637.492958
 11
476.823387
 21
638.464349
  0
LINE
  8
OBRYS
 10
476.823387
 20
638.464349
 11
477.889409
 21
640.267721
  0
LINE
  8
OBRYS
 10
477.889409
 20
640.267721
 11
478.473248
 21
641.584290
  0
LINE
  8
OBRYS
 10
478.473248
 20
641.584290
 11
478.674657
 21
642.234434
  0
LINE
  8
OBRYS
 10
478.674657
 20
642.234434
 11
478.694206
 21
642.396530
  0
LINE
  8
OBRYS
 10
478.694206
 20
642.396530
 11
478.785712
 21
641.453918
  0
LINE
  8
OBRYS
 10
478.785712
 20
641.453918
 11
478.875778
 21
641.074778
  0
ARC
  8
OBRYS
 10
479.400267
 20
640.424109
 40
6.316777
 50
205.402241
 51
241.264726
  0
LINE
  8
OBRYS
 10
252.694206
 20
753.006857
 11
252.694206
 21
652.504344
  0
LINE
  8
OBRYS
 10
252.335222
 20
773.716465
 11
252.756841
 21
772.476128
  0
LINE
  8
OBRYS
 10
252.756841
 20
772.476128
 11
252.803708
 21
770.887089
  0
LINE
  8
OBRYS
 10
252.803708
 20
770.887089
 11
252.621147
 21
769.603409
  0
LINE
  8
OBRYS
 10
252.621147
 20
769.603409
 11
252.231826
 21
767.739675
  0
LINE
  8
OBRYS
 10
252.231826
 20
767.739675
 11
251.911548
 21
766.072800
  0
LINE
  8
OBRYS
 10
251.911548
 20
766.072800
 11
251.841910
 21
765.434982
  0
LINE
  8
OBRYS
 10
251.841910
 20
765.434982
 11
251.829716
 21
765.164992
  0
LINE
  8
OBRYS
 10
251.829716
 20
765.164992
 11
251.829275
 21
765.042228
  0
LINE
  8
OBRYS
 10
251.829275
 20
765.042228
 11
251.992513
 21
763.845819
  0
LINE
  8
OBRYS
 10
251.992513
 20
763.845819
 11
252.193061
 21
762.521066
  0
LINE
  8
OBRYS
 10
252.193061
 20
762.521066
 11
252.568911
 21
758.289443
  0
LINE
  8
OBRYS
 10
252.568911
 20
758.289443
 11
252.694206
 21
753.006857
  0
LINE
  8
OBRYS
 10
247.694206
 20
825.739886
 11
248.087495
 21
824.896598
  0
LINE
  8
OBRYS
 10
248.087495
 20
824.896598
 11
248.388422
 21
823.936551
  0
LINE
  8
OBRYS
 10
248.388422
 20
823.936551
 11
248.596989
 21
822.859687
  0
LINE
  8
OBRYS
 10
248.596989
 20
822.859687
 11
248.744780
 21
818.954896
  0
LINE
  8
OBRYS
 10
248.744780
 20
818.954896
 11
248.627287
 21
814.900770
  0
LINE
  8
OBRYS
 10
248.627287
 20
814.900770
 11
248.949711
 21
811.126917
  0
LINE
  8
OBRYS
 10
248.949711
 20
811.126917
 11
249.394962
 21
807.432608
  0
LINE
  8
OBRYS
 10
249.394962
 20
807.432608
 11
249.850030
 21
803.699705
  0
LINE
  8
OBRYS
 10
249.850030
 20
803.699705
 11
250.314915
 21
799.928198
  0
LINE
  8
OBRYS
 10
250.314915
 20
799.928198
 11
251.207790
 21
792.797363
  0
LINE
  8
OBRYS
 10
251.207790
 20
792.797363
 11
251.326308
 21
791.861656
  0
LINE
  8
OBRYS
 10
251.326308
 20
791.861656
 11
251.445194
 21
790.925511
  0
LINE
  8
OBRYS
 10
251.445194
 20
790.925511
 11
251.564450
 21
789.988927
  0
LINE
  8
OBRYS
 10
251.564450
 20
789.988927
 11
251.684074
 21
789.051906
  0
LINE
  8
OBRYS
 10
251.684074
 20
789.051906
 11
251.804067
 21
788.114447
  0
LINE
  8
OBRYS
 10
251.804067
 20
788.114447
 11
251.924429
 21
787.176552
  0
LINE
  8
OBRYS
 10
251.924429
 20
787.176552
 11
252.086998
 21
785.898403
  0
LINE
  8
OBRYS
 10
252.086998
 20
785.898403
 11
252.205288
 21
784.938906
  0
LINE
  8
OBRYS
 10
252.205288
 20
784.938906
 11
252.279301
 21
784.298187
  0
LINE
  8
OBRYS
 10
252.279301
 20
784.298187
 11
252.309035
 21
783.976329
  0
LINE
  8
OBRYS
 10
252.309035
 20
783.976329
 11
252.305923
 21
783.048233
  0
LINE
  8
OBRYS
 10
252.305923
 20
783.048233
 11
252.222056
 21
781.857533
  0
LINE
  8
OBRYS
 10
252.222056
 20
781.857533
 11
252.057435
 21
780.404108
  0
LINE
  8
OBRYS
 10
252.057435
 20
780.404108
 11
251.909478
 21
779.201772
  0
LINE
  8
OBRYS
 10
251.909478
 20
779.201772
 11
251.802119
 21
778.196408
  0
LINE
  8
OBRYS
 10
251.802119
 20
778.196408
 11
251.735358
 21
777.388096
  0
LINE
  8
OBRYS
 10
251.735358
 20
777.388096
 11
251.709196
 21
776.776895
  0
LINE
  8
OBRYS
 10
251.709196
 20
776.776895
 11
251.854690
 21
775.048745
  0
LINE
  8
OBRYS
 10
251.854690
 20
775.048745
 11
252.335222
 21
773.716465
  0
LINE
  8
OBRYS
 10
247.694206
 20
932.504344
 11
247.694206
 21
825.739886
  0
LINE
  8
OBRYS
 10
248.694206
 20
932.504344
 11
247.694206
 21
932.504344
  0
LINE
  8
OBRYS
 10
473.694206
 20
932.504344
 11
248.694206
 21
932.504344
  0
LINE
  8
OBRYS
 10
473.694206
 20
652.504344
 11
473.694206
 21
932.504344
  0
LINE
  8
OBRYS
 10
473.694206
 20
652.504344
 11
252.694206
 21
652.504344
  0
LINE
  8
OBRYS
 10
252.694206
 20
652.504344
 11
247.694206
 21
652.504344
  0
LINE
  8
OBRYS
 10
247.694206
 20
652.504344
 11
247.694206
 21
752.504344
  0
ARC
  8
OBRYS
 10
251.456832
 20
740.192472
 40
12.873987
 50
84.484543
 51
106.993654
  0
LINE
  8
OBRYS
 10
360.694206
 20
587.504344
 11
360.694206
 21
588.844090
  0
LINE
  8
OBRYS
 10
355.694206
 20
597.504344
 11
355.704206
 21
597.494344
  0
LINE
  8
OBRYS
 10
355.704206
 20
597.494344
 11
358.552178
 21
594.377307
  0
LINE
  8
OBRYS
 10
358.552178
 20
594.377307
 11
359.508814
 21
592.943679
  0
LINE
  8
OBRYS
 10
359.508814
 20
592.943679
 11
360.247418
 21
591.344090
  0
LINE
  8
OBRYS
 10
360.247418
 20
591.344090
 11
360.694206
 21
588.844090
  0
LINE
  8
OBRYS
 10
287.694206
 20
597.504344
 11
355.694206
 21
597.504344
  0
LINE
  8
OBRYS
 10
282.694206
 20
588.844090
 11
283.140994
 21
591.344090
  0
LINE
  8
OBRYS
 10
283.140994
 20
591.344090
 11
283.858485
 21
592.906543
  0
LINE
  8
OBRYS
 10
283.858485
 20
592.906543
 11
284.836234
 21
594.377307
  0
LINE
  8
OBRYS
 10
284.836234
 20
594.377307
 11
287.684206
 21
597.494344
  0
LINE
  8
OBRYS
 10
287.684206
 20
597.494344
 11
287.694206
 21
597.504344
  0
LINE
  8
OBRYS
 10
282.694206
 20
587.504344
 11
282.694206
 21
588.844090
  0
LINE
  8
OBRYS
 10
282.694206
 20
587.504344
 11
248.352468
 21
587.504344
  0
LINE
  8
OBRYS
 10
248.352468
 20
633.798439
 11
248.352468
 21
587.504344
  0
LINE
  8
OBRYS
 10
252.694206
 20
652.504344
 11
252.694206
 21
637.714398
  0
LINE
  8
OBRYS
 10
473.694206
 20
637.714398
 11
473.694206
 21
652.504344
  0
LINE
  8
OBRYS
 10
478.035944
 20
587.504344
 11
478.035944
 21
633.798439
  0
CIRCLE
  8
OBRYS
 10
450.694206
 20
612.504344
 40
15.000000
  0
LINE
  8
OBRYS
 10
478.035944
 20
587.504344
 11
360.694206
 21
587.504344
  0
LINE
  8
OBRYS
 10
478.694206
 20
652.504344
 11
473.694206
 21
652.504344
  0
LINE
  8
OBRYS
 10
478.694206
 20
652.504344
 11
478.694206
 21
642.396530
  0
LINE
  8
OBRYS
 10
478.694206
 20
932.504344
 11
478.694206
 21
652.504344
  0
LINE
  8
OBRYS
 10
479.330039
 20
632.504344
 11
479.330039
 21
587.504344
  0
LINE
  8
OBRYS
 10
479.330039
 20
587.504344
 11
478.035944
 21
587.504344
  0
LINE
  8
OBRYS
 10
287.694206
 20
597.504344
 11
287.694206
 21
592.504344
  0
LINE
  8
OBRYS
 10
355.694206
 20
592.504344
 11
355.694206
 21
597.504344
  0
LINE
  8
OBRYS
 10
355.694206
 20
592.504344
 11
287.694206
 21
592.504344
  0
ARC
  8
OBRYS
 10
355.694206
 20
587.504344
 40
5.000000
 50
0.000000
 51
90.000000
  0
ARC
  8
OBRYS
 10
287.694206
 20
587.504344
 40
5.000000
 50
90.000000
 51
180.000000
  0
LINE
  8
OBRYS
 10
247.694206
 20
642.396530
 11
247.694206
 21
652.504344
  0
LINE
  8
OBRYS
 10
247.058373
 20
587.504344
 11
247.058373
 21
632.504344
  0
LINE
  8
OBRYS
 10
248.352468
 20
587.504344
 11
247.058373
 21
587.504344
  0
LINE
  8
OBRYS
 10
548.988301
 20
587.504344
 11
548.988301
 21
632.504344
  0
LINE
  8
OBRYS
 10
548.988301
 20
587.504344
 11
479.330039
 21
587.504344
  0
LINE
  8
OBRYS
 10
191.400111
 20
632.504344
 11
191.400111
 21
587.504344
  0
LINE
  8
OBRYS
 10
247.058373
 20
587.504344
 11
191.400111
 21
587.504344
  0
CIRCLE
  8
OBRYS
 10
450.694206
 20
612.504344
 40
12.500000
  0
LINE
  8
OBRYS
 10
478.694206
 20
642.396530
 11
478.694206
 21
642.504344
  0
ARC
  8
OBRYS
 10
483.694206
 20
642.504344
 40
5.000000
 50
180.000000
 51
270.000000
  0
ARC
  8
OBRYS
 10
242.694206
 20
642.504344
 40
5.000000
 50
270.000000
 51
360.000000
  0
LINE
  8
OBRYS
 10
247.694206
 20
642.504344
 11
247.694206
 21
642.396530
  0
ARC
  8
OBRYS
 10
217.694206
 20
752.504344
 40
30.000000
 50
0.000000
 51
30.000000
  0
LINE
  8
OBRYS
 10
252.335222
 20
773.716465
 11
250.705639
 21
772.767876
  0
LINE
  8
OBRYS
 10
250.705639
 20
772.767876
 11
249.035258
 21
771.748124
  0
LINE
  8
OBRYS
 10
249.035258
 20
771.748124
 11
247.432620
 21
770.715471
  0
LINE
  8
OBRYS
 10
247.432620
 20
770.715471
 11
246.017046
 21
769.740859
  0
LINE
  8
OBRYS
 10
246.017046
 20
769.740859
 11
244.892972
 21
768.893745
  0
LINE
  8
OBRYS
 10
244.892972
 20
768.893745
 11
244.125840
 21
768.226530
  0
LINE
  8
OBRYS
 10
244.125840
 20
768.226530
 11
243.730332
 21
767.764391
  0
LINE
  8
OBRYS
 10
243.730332
 20
767.764391
 11
243.674968
 21
767.504344
  0
LINE
  8
OBRYS
 10
243.674968
 20
767.504344
 11
221.713444
 21
805.542820
  0
LINE
  8
OBRYS
 10
247.694206
 20
825.739886
 11
244.510852
 21
823.911593
  0
LINE
  8
OBRYS
 10
244.510852
 20
823.911593
 11
241.869767
 21
822.338254
  0
LINE
  8
OBRYS
 10
241.869767
 20
822.338254
 11
240.411745
 21
821.450541
  0
LINE
  8
OBRYS
 10
240.411745
 20
821.450541
 11
239.191915
 21
820.694239
  0
LINE
  8
OBRYS
 10
239.191915
 20
820.694239
 11
237.340991
 21
819.511869
  0
LINE
  8
OBRYS
 10
237.340991
 20
819.511869
 11
234.542034
 21
817.651474
  0
LINE
  8
OBRYS
 10
234.542034
 20
817.651474
 11
232.145896
 21
815.991653
  0
LINE
  8
OBRYS
 10
232.145896
 20
815.991653
 11
230.131906
 21
814.541830
  0
LINE
  8
OBRYS
 10
230.131906
 20
814.541830
 11
228.471673
 21
813.289868
  0
LINE
  8
OBRYS
 10
228.471673
 20
813.289868
 11
227.420372
 21
812.454947
  0
LINE
  8
OBRYS
 10
227.420372
 20
812.454947
 11
226.482837
 21
811.678835
  0
LINE
  8
OBRYS
 10
226.482837
 20
811.678835
 11
225.651966
 21
810.962945
  0
LINE
  8
OBRYS
 10
225.651966
 20
810.962945
 11
224.920557
 21
810.306710
  0
LINE
  8
OBRYS
 10
224.920557
 20
810.306710
 11
223.727838
 21
809.162343
  0
LINE
  8
OBRYS
 10
223.727838
 20
809.162343
 11
222.851187
 21
808.210987
  0
LINE
  8
OBRYS
 10
222.851187
 20
808.210987
 11
221.997569
 21
807.040228
  0
LINE
  8
OBRYS
 10
221.997569
 20
807.040228
 11
221.635930
 21
806.162792
  0
LINE
  8
OBRYS
 10
221.635930
 20
806.162792
 11
221.713444
 21
805.542820
  0
ARC
  8
OBRYS
 10
247.694206
 20
820.542820
 40
30.000000
 50
180.000000
 51
210.000000
  0
LINE
  8
OBRYS
 10
247.694206
 20
825.739886
 11
241.841496
 21
825.640026
  0
LINE
  8
OBRYS
 10
241.841496
 20
825.640026
 11
236.213703
 21
825.344283
  0
LINE
  8
OBRYS
 10
236.213703
 20
825.344283
 11
231.027099
 21
824.864023
  0
LINE
  8
OBRYS
 10
231.027099
 20
824.864023
 11
226.481003
 21
824.217701
  0
LINE
  8
OBRYS
 10
226.481003
 20
824.217701
 11
222.750118
 21
823.430155
  0
LINE
  8
OBRYS
 10
222.750118
 20
823.430155
 11
219.977820
 21
822.531651
  0
LINE
  8
OBRYS
 10
219.977820
 20
822.531651
 11
218.270648
 21
821.556717
  0
LINE
  8
OBRYS
 10
218.270648
 20
821.556717
 11
217.694206
 21
820.542820
  0
LINE
  8
OBRYS
 10
217.694206
 20
820.542820
 11
217.694206
 21
932.504344
  0
LINE
  8
OBRYS
 10
217.694206
 20
932.504344
 11
247.694206
 21
932.504344
  0
LINE
  8
OBRYS
 10
187.694206
 20
587.504344
 11
187.694206
 21
632.504344
  0
LINE
  8
OBRYS
 10
187.694206
 20
632.504344
 11
191.400111
 21
632.504344
  0
LINE
  8
OBRYS
 10
191.400111
 20
587.504344
 11
187.694206
 21
587.504344
  0
ARC
  8
OBRYS
 10
192.694206
 20
632.504344
 40
5.000000
 50
90.000000
 51
180.000000
  0
LINE
  8
OBRYS
 10
548.988301
 20
632.504344
 11
552.694206
 21
632.504344
  0
LINE
  8
OBRYS
 10
552.694206
 20
632.504344
 11
552.694206
 21
587.504344
  0
LINE
  8
OBRYS
 10
552.694206
 20
587.504344
 11
548.988301
 21
587.504344
  0
ARC
  8
OBRYS
 10
547.694206
 20
632.504344
 40
5.000000
 50
0.000000
 51
90.000000
  0
LINE
  8
OBRYS
 10
479.694206
 20
932.504344
 11
481.028131
 21
932.504344
  0
LINE
  8
OBRYS
 10
483.694206
 20
932.504344
 11
483.694206
 21
662.304344
  0
LINE
  8
OBRYS
 10
495.694206
 20
939.953917
 11
495.694206
 21
664.654771
  0
LINE
  8
OBRYS
 10
218.694206
 20
944.004344
 11
218.694206
 21
932.504344
  0
LINE
  8
OBRYS
 10
248.694206
 20
944.004344
 11
218.694206
 21
944.004344
  0
LINE
  8
OBRYS
 10
248.694206
 20
944.004344
 11
248.694206
 21
932.504344
  0
LINE
  8
OBRYS
 10
474.694206
 20
944.004344
 11
248.694206
 21
944.004344
  0
LINE
  8
OBRYS
 10
474.694206
 20
944.004344
 11
474.694206
 21
932.504344
  0
LINE
  8
OBRYS
 10
473.694206
 20
932.504344
 11
474.694206
 21
932.504344
  0
LINE
  8
OBRYS
 10
248.694206
 20
944.504344
 11
474.694206
 21
944.504344
  0
LINE
  8
OBRYS
 10
474.694206
 20
944.504344
 11
474.694206
 21
944.004344
  0
LINE
  8
OBRYS
 10
248.694206
 20
944.504344
 11
248.694206
 21
944.004344
  0
LINE
  8
OBRYS
 10
474.694206
 20
944.504344
 11
479.194206
 21
944.504344
  0
LINE
  8
OBRYS
 10
479.194206
 20
944.504344
 11
479.694206
 21
944.004344
  0
LINE
  8
OBRYS
 10
479.694206
 20
944.004344
 11
474.694206
 21
944.004344
  0
LINE
  8
OBRYS
 10
479.694206
 20
944.004344
 11
479.694206
 21
932.504344
  0
LINE
  8
OBRYS
 10
474.694206
 20
932.504344
 11
479.694206
 21
932.504344
  0
LINE
  8
OBRYS
 10
219.194206
 20
944.504344
 11
248.694206
 21
944.504344
  0
LINE
  8
OBRYS
 10
219.194206
 20
944.504344
 11
218.694206
 21
944.004344
  0
LINE
  8
OBRYS
 10
502.694206
 20
858.130482
 11
502.694206
 21
842.130482
  0
LINE
  8
OBRYS
 10
502.694206
 20
762.459624
 11
502.694206
 21
746.459624
  0
LINE
  8
OBRYS
 10
463.194206
 20
949.504344
 11
474.194206
 21
949.504344
  0
LINE
  8
OBRYS
 10
345.194206
 20
949.504344
 11
356.194206
 21
949.504344
  0
LINE
  8
OBRYS
 10
232.194206
 20
949.504344
 11
243.194206
 21
949.504344
  0
LINE
  8
OBRYS
 10
247.694206
 20
752.504344
 11
247.598132
 21
752.972561
  0
LINE
  8
OBRYS
 10
247.598132
 20
752.972561
 11
247.313604
 21
753.422784
  0
LINE
  8
OBRYS
 10
247.313604
 20
753.422784
 11
246.851554
 21
753.837713
  0
LINE
  8
OBRYS
 10
246.851554
 20
753.837713
 11
246.229740
 21
754.201400
  0
LINE
  8
OBRYS
 10
246.229740
 20
754.201400
 11
245.472057
 21
754.499871
  0
LINE
  8
OBRYS
 10
245.472057
 20
754.499871
 11
244.607623
 21
754.721655
  0
LINE
  8
OBRYS
 10
244.607623
 20
754.721655
 11
243.669658
 21
754.858229
  0
LINE
  8
OBRYS
 10
243.669658
 20
754.858229
 11
242.694206
 21
754.904344
  0
ARC
  8
OBRYS
 10
219.452134
 20
754.878205
 40
23.242087
 50
0.064437
 51
24.484818
  0
LINE
  8
OBRYS
 10
245.186062
 20
764.512586
 11
244.984780
 21
764.779882
  0
LINE
  8
OBRYS
 10
244.984780
 20
764.779882
 11
244.647766
 21
764.976886
  0
LINE
  8
OBRYS
 10
244.647766
 20
764.976886
 11
244.185460
 21
765.097491
  0
LINE
  8
OBRYS
 10
244.185460
 20
765.097491
 11
243.612187
 21
765.137963
  0
LINE
  8
OBRYS
 10
243.612187
 20
765.137963
 11
242.945709
 21
765.097045
  0
LINE
  8
OBRYS
 10
242.945709
 20
765.097045
 11
242.206678
 21
764.976007
  0
LINE
  8
OBRYS
 10
242.206678
 20
764.976007
 11
241.417991
 21
764.778599
  0
LINE
  8
OBRYS
 10
241.417991
 20
764.778599
 11
240.604086
 21
764.510937
  0
LINE
  8
OBRYS
 10
240.604086
 20
764.510937
 11
239.344841
 21
765.757503
  0
ARC
  8
OBRYS
 10
244.807916
 20
758.455704
 40
9.119291
 50
97.136660
 51
126.803174
  0
LINE
  8
OBRYS
 10
239.344841
 20
765.757503
 11
233.745791
 21
770.606423
  0
LINE
  8
OBRYS
 10
238.075918
 20
777.202183
 11
238.421538
 21
776.294904
  0
LINE
  8
OBRYS
 10
238.421538
 20
776.294904
 11
238.478525
 21
775.289306
  0
LINE
  8
OBRYS
 10
238.478525
 20
775.289306
 11
238.243362
 21
774.247465
  0
LINE
  8
OBRYS
 10
238.243362
 20
774.247465
 11
237.730565
 21
773.233694
  0
LINE
  8
OBRYS
 10
237.730565
 20
773.233694
 11
236.971789
 21
772.310573
  0
LINE
  8
OBRYS
 10
236.971789
 20
772.310573
 11
236.013873
 21
771.535084
  0
LINE
  8
OBRYS
 10
236.013873
 20
771.535084
 11
234.915949
 21
770.955100
  0
LINE
  8
OBRYS
 10
234.915949
 20
770.955100
 11
233.745791
 21
770.606423
  0
ARC
  8
OBRYS
 10
213.105443
 20
849.804477
 40
4.616143
 50
6.243546
 51
95.111074
  0
LINE
  8
OBRYS
 10
212.694206
 20
854.402265
 11
212.694206
 21
860.497751
  0
LINE
  8
OBRYS
 10
217.694206
 20
862.497476
 11
217.598132
 21
862.107349
  0
LINE
  8
OBRYS
 10
217.598132
 20
862.107349
 11
217.313604
 21
861.732215
  0
LINE
  8
OBRYS
 10
217.313604
 20
861.732215
 11
216.851554
 21
861.386488
  0
LINE
  8
OBRYS
 10
216.851554
 20
861.386488
 11
216.229740
 21
861.083457
  0
LINE
  8
OBRYS
 10
216.229740
 20
861.083457
 11
215.472057
 21
860.834765
  0
LINE
  8
OBRYS
 10
215.472057
 20
860.834765
 11
214.607623
 21
860.649971
  0
LINE
  8
OBRYS
 10
214.607623
 20
860.649971
 11
213.669658
 21
860.536175
  0
LINE
  8
OBRYS
 10
213.669658
 20
860.536175
 11
212.694206
 21
860.497751
  0
LINE
  8
OBRYS
 10
212.694206
 20
860.497751
 11
212.694206
 21
883.757180
  0
LINE
  8
OBRYS
 10
217.694206
 20
886.726048
 11
217.598132
 21
886.146850
  0
LINE
  8
OBRYS
 10
217.598132
 20
886.146850
 11
217.313604
 21
885.589911
  0
LINE
  8
OBRYS
 10
217.313604
 20
885.589911
 11
216.851554
 21
885.076633
  0
LINE
  8
OBRYS
 10
216.851554
 20
885.076633
 11
216.229740
 21
884.626741
  0
LINE
  8
OBRYS
 10
216.229740
 20
884.626741
 11
215.472057
 21
884.257524
  0
LINE
  8
OBRYS
 10
215.472057
 20
884.257524
 11
214.607623
 21
883.983171
  0
LINE
  8
OBRYS
 10
214.607623
 20
883.983171
 11
213.669658
 21
883.814226
  0
LINE
  8
OBRYS
 10
213.669658
 20
883.814226
 11
212.694206
 21
883.757180
  0
LINE
  8
OBRYS
 10
247.694206
 20
737.079230
 11
247.602342
 21
736.474882
  0
LINE
  8
OBRYS
 10
247.602342
 20
736.474882
 11
247.330125
 21
735.892742
  0
LINE
  8
OBRYS
 10
247.330125
 20
735.892742
 11
246.887559
 21
735.354201
  0
LINE
  8
OBRYS
 10
246.887559
 20
735.354201
 11
246.290905
 21
734.879046
  0
LINE
  8
OBRYS
 10
246.290905
 20
734.879046
 11
245.562088
 21
734.484739
  0
LINE
  8
OBRYS
 10
245.562088
 20
734.484739
 11
244.727889
 21
734.185768
  0
LINE
  8
OBRYS
 10
244.727889
 20
734.185768
 11
243.818961
 21
733.993119
  0
LINE
  8
OBRYS
 10
243.818961
 20
733.993119
 11
242.868703
 21
733.913871
  0
LINE
  8
OBRYS
 10
241.851122
 20
741.251509
 11
242.694206
 21
741.274791
  0
LINE
  8
OBRYS
 10
241.851122
 20
741.251509
 11
182.694206
 21
741.251509
  0
LINE
  8
OBRYS
 10
182.694206
 20
741.251509
 11
182.694206
 21
764.510937
  0
LINE
  8
OBRYS
 10
240.604086
 20
764.510937
 11
182.694206
 21
764.510937
  0
LINE
  8
OBRYS
 10
242.694206
 20
741.274791
 11
242.694206
 21
754.904344
  0
LINE
  8
OBRYS
 10
233.745791
 20
770.606423
 11
225.945168
 21
784.117499
  0
LINE
  8
OBRYS
 10
230.275295
 20
790.713259
 11
230.620915
 21
789.805979
  0
LINE
  8
OBRYS
 10
230.620915
 20
789.805979
 11
230.677902
 21
788.800382
  0
LINE
  8
OBRYS
 10
230.677902
 20
788.800382
 11
230.442739
 21
787.758541
  0
LINE
  8
OBRYS
 10
230.442739
 20
787.758541
 11
229.929942
 21
786.744770
  0
LINE
  8
OBRYS
 10
229.929942
 20
786.744770
 11
229.171165
 21
785.821648
  0
LINE
  8
OBRYS
 10
229.171165
 20
785.821648
 11
228.213250
 21
785.046160
  0
LINE
  8
OBRYS
 10
228.213250
 20
785.046160
 11
227.115325
 21
784.466176
  0
LINE
  8
OBRYS
 10
227.115325
 20
784.466176
 11
225.945168
 21
784.117499
  0
ARC
  8
OBRYS
 10
213.105443
 20
836.293401
 40
4.616143
 50
6.243546
 51
95.111074
  0
LINE
  8
OBRYS
 10
212.694206
 20
840.891190
 11
212.694206
 21
854.402265
  0
LINE
  8
OBRYS
 10
182.694206
 20
764.510937
 11
182.694206
 21
770.606423
  0
LINE
  8
OBRYS
 10
233.745791
 20
770.606423
 11
182.694206
 21
770.606423
  0
LINE
  8
OBRYS
 10
182.694206
 20
854.402265
 11
182.694206
 21
860.497751
  0
LINE
  8
OBRYS
 10
212.694206
 20
860.497751
 11
182.694206
 21
860.497751
  0
LINE
  8
OBRYS
 10
212.694206
 20
854.402265
 11
182.694206
 21
854.402265
  0
LINE
  8
OBRYS
 10
212.694206
 20
883.757180
 11
182.694206
 21
883.757180
  0
LINE
  8
OBRYS
 10
182.694206
 20
860.497751
 11
182.694206
 21
883.757180
  0
LINE
  8
OBRYS
 10
247.694206
 20
738.306893
 11
247.598132
 21
738.885901
  0
LINE
  8
OBRYS
 10
247.598132
 20
738.885901
 11
247.313604
 21
739.442659
  0
LINE
  8
OBRYS
 10
247.313604
 20
739.442659
 11
246.851554
 21
739.955769
  0
LINE
  8
OBRYS
 10
246.851554
 20
739.955769
 11
246.229740
 21
740.405514
  0
LINE
  8
OBRYS
 10
246.229740
 20
740.405514
 11
245.472057
 21
740.774610
  0
LINE
  8
OBRYS
 10
245.472057
 20
740.774610
 11
244.607623
 21
741.048873
  0
LINE
  8
OBRYS
 10
244.607623
 20
741.048873
 11
243.669658
 21
741.217764
  0
LINE
  8
OBRYS
 10
243.669658
 20
741.217764
 11
242.694206
 21
741.274791
  0
LINE
  8
OBRYS
 10
242.060519
 20
733.891012
 11
239.519709
 21
733.819429
  0
LINE
  8
OBRYS
 10
242.868703
 20
733.913871
 11
242.060519
 21
733.891012
  0
LINE
  8
OBRYS
 10
234.694206
 20
654.363229
 11
234.694206
 21
730.656037
  0
LINE
  8
OBRYS
 10
234.694206
 20
730.656037
 11
234.786070
 21
731.260009
  0
LINE
  8
OBRYS
 10
234.786070
 20
731.260009
 11
235.058287
 21
731.841787
  0
LINE
  8
OBRYS
 10
235.058287
 20
731.841787
 11
235.500853
 21
732.379994
  0
LINE
  8
OBRYS
 10
235.500853
 20
732.379994
 11
236.097507
 21
732.854853
  0
LINE
  8
OBRYS
 10
236.097507
 20
732.854853
 11
236.826324
 21
733.248916
  0
LINE
  8
OBRYS
 10
236.826324
 20
733.248916
 11
237.660523
 21
733.547701
  0
LINE
  8
OBRYS
 10
237.660523
 20
733.547701
 11
238.569451
 21
733.740230
  0
LINE
  8
OBRYS
 10
238.569451
 20
733.740230
 11
239.519709
 21
733.819429
  0
LINE
  8
OBRYS
 10
225.945168
 20
784.117499
 11
182.694206
 21
784.117499
  0
LINE
  8
OBRYS
 10
182.694206
 20
770.606423
 11
182.694206
 21
784.117499
  0
LINE
  8
OBRYS
 10
212.694206
 20
840.891190
 11
182.694206
 21
840.891190
  0
LINE
  8
OBRYS
 10
182.694206
 20
840.891190
 11
182.694206
 21
854.402265
  0
ARC
  8
OBRYS
 10
-58.286420
 20
730.457236
 40
301.174961
 50
0.657607
 51
2.058384
  0
ARC
  8
OBRYS
 10
-8.735351
 20
730.439408
 40
250.819620
 50
0.788489
 51
2.470619
  0
LINE
  8
OBRYS
 10
231.694206
 20
741.119820
 11
238.885020
 21
741.212604
  0
LINE
  8
OBRYS
 10
238.885020
 20
741.212604
 11
241.851122
 21
741.251509
  0
LINE
  8
OBRYS
 10
239.570876
 20
736.946290
 11
239.534574
 21
735.010758
  0
LINE
  8
OBRYS
 10
239.534574
 20
735.010758
 11
239.519709
 21
733.819429
  0
LINE
  8
OBRYS
 10
239.570876
 20
736.946290
 11
239.455434
 21
737.846887
  0
LINE
  8
OBRYS
 10
239.455434
 20
737.846887
 11
239.067341
 21
738.665006
  0
LINE
  8
OBRYS
 10
239.067341
 20
738.665006
 11
238.242036
 21
739.522329
  0
LINE
  8
OBRYS
 10
238.242036
 20
739.522329
 11
236.530678
 21
740.420756
  0
LINE
  8
OBRYS
 10
236.530678
 20
740.420756
 11
233.034542
 21
741.086787
  0
LINE
  8
OBRYS
 10
233.034542
 20
741.086787
 11
231.694206
 21
741.119820
  0
ARC
  8
OBRYS
 10
238.385888
 20
725.758793
 40
11.250079
 50
83.953733
 51
109.156355
  0
LINE
  8
OBRYS
 10
234.694206
 20
730.656037
 11
234.694206
 21
736.385917
  0
LINE
  8
OBRYS
 10
182.694206
 20
739.220377
 11
182.694206
 21
741.251509
  0
LINE
  8
OBRYS
 10
182.694206
 20
883.757180
 11
182.694206
 21
885.788312
  0
ARC
  8
OBRYS
 10
225.270040
 20
792.166582
 40
13.840994
 50
104.889815
 51
124.736906
  0
ARC
  8
OBRYS
 10
244.514630
 20
820.167084
 40
31.820459
 50
180.085243
 51
211.500305
  0
ARC
  8
OBRYS
 10
213.935256
 20
835.209752
 40
15.140957
 50
265.298395
 51
284.374789
  0
LINE
  8
OBRYS
 10
212.694206
 20
820.119742
 11
212.694206
 21
835.516951
  0
LINE
  8
OBRYS
 10
217.694206
 20
836.795429
 11
217.598132
 21
836.546011
  0
LINE
  8
OBRYS
 10
217.598132
 20
836.546011
 11
217.313604
 21
836.306177
  0
LINE
  8
OBRYS
 10
217.313604
 20
836.306177
 11
216.851554
 21
836.085145
  0
LINE
  8
OBRYS
 10
216.851554
 20
836.085145
 11
216.229740
 21
835.891409
  0
LINE
  8
OBRYS
 10
216.229740
 20
835.891409
 11
215.472057
 21
835.732414
  0
LINE
  8
OBRYS
 10
215.472057
 20
835.732414
 11
214.607623
 21
835.614270
  0
LINE
  8
OBRYS
 10
214.607623
 20
835.614270
 11
213.669658
 21
835.541517
  0
LINE
  8
OBRYS
 10
213.669658
 20
835.541517
 11
212.694206
 21
835.516951
  0
LINE
  8
OBRYS
 10
230.275295
 20
790.713259
 11
230.104976
 21
790.846116
  0
LINE
  8
OBRYS
 10
230.104976
 20
790.846116
 11
229.799758
 21
790.893592
  0
LINE
  8
OBRYS
 10
229.799758
 20
790.893592
 11
229.369540
 21
790.854148
  0
LINE
  8
OBRYS
 10
229.369540
 20
790.854148
 11
228.828272
 21
790.729062
  0
LINE
  8
OBRYS
 10
228.828272
 20
790.729062
 11
228.193509
 21
790.522391
  0
LINE
  8
OBRYS
 10
228.193509
 20
790.522391
 11
227.485835
 21
790.240838
  0
LINE
  8
OBRYS
 10
227.485835
 20
790.240838
 11
226.728198
 21
789.893532
  0
LINE
  8
OBRYS
 10
226.728198
 20
789.893532
 11
225.945168
 21
789.491737
  0
LINE
  8
OBRYS
 10
225.945168
 20
789.491737
 11
217.383317
 21
803.540795
  0
LINE
  8
OBRYS
 10
212.694206
 20
835.516951
 11
212.694206
 21
840.891190
  0
LINE
  8
OBRYS
 10
225.945168
 20
784.117499
 11
225.945168
 21
789.491737
  0
LINE
  8
OBRYS
 10
502.694206
 20
843.212015
 11
557.694206
 21
843.212015
  0
LINE
  8
OBRYS
 10
557.694206
 20
761.396674
 11
502.694206
 21
761.396674
  0
LINE
  8
OBRYS
 10
495.694206
 20
743.808840
 11
496.694206
 21
743.733361
  0
LINE
  8
OBRYS
 10
496.694206
 20
743.733361
 11
496.694206
 21
745.459624
  0
LINE
  8
OBRYS
 10
496.694206
 20
860.875327
 11
495.694206
 21
860.799848
  0
LINE
  8
OBRYS
 10
496.694206
 20
859.130482
 11
496.694206
 21
860.875327
  0
LINE
  8
OBRYS
 10
496.694206
 20
743.733361
 11
557.694206
 21
743.733361
  0
LINE
  8
OBRYS
 10
557.694206
 20
743.733361
 11
557.694206
 21
761.396674
  0
LINE
  8
OBRYS
 10
557.694206
 20
860.875327
 11
496.694206
 21
860.875327
  0
LINE
  8
OBRYS
 10
557.694206
 20
843.212015
 11
557.694206
 21
860.875327
  0
LINE
  8
OBRYS
 10
225.945168
 20
789.491737
 11
182.694206
 21
789.491737
  0
LINE
  8
OBRYS
 10
212.694206
 20
835.516951
 11
182.694206
 21
835.516951
  0
LINE
  8
OBRYS
 10
182.694206
 20
789.491737
 11
182.694206
 21
835.516951
  0
LINE
  8
OBRYS
 10
182.694206
 20
784.117499
 11
182.694206
 21
789.491737
  0
LINE
  8
OBRYS
 10
182.694206
 20
835.516951
 11
182.694206
 21
840.891190
  0
LINE
  8
OBRYS
 10
495.694206
 20
902.408003
 11
496.694206
 21
901.782997
  0
LINE
  8
OBRYS
 10
496.694206
 20
901.782997
 11
557.694206
 21
901.782997
  0
LINE
  8
OBRYS
 10
557.694206
 20
702.825691
 11
496.694206
 21
702.825691
  0
LINE
  8
OBRYS
 10
496.694206
 20
702.825691
 11
495.694206
 21
702.200685
  0
LINE
  8
OBRYS
 10
179.194206
 20
812.504344
 11
179.194206
 21
892.504344
  0
LINE
  8
OBRYS
 10
179.194206
 20
732.504344
 11
179.194206
 21
812.504344
  0
LINE
  8
OBRYS
 10
244.194206
 20
946.004344
 11
267.194206
 21
946.004344
  0
LINE
  8
OBRYS
 10
244.944206
 20
954.004344
 11
264.444206
 21
954.004344
  0
ARC
  8
OBRYS
 10
212.779972
 20
904.276214
 40
4.915038
 50
269.000160
 51
358.963983
  0
LINE
  8
OBRYS
 10
212.694206
 20
899.361925
 11
182.694206
 21
899.361925
  0
LINE
  8
OBRYS
 10
182.694206
 20
885.788312
 11
182.694206
 21
899.361925
  0
LINE
  8
OBRYS
 10
231.694206
 20
693.565242
 11
231.746563
 21
693.565121
  0
LINE
  8
OBRYS
 10
182.694206
 20
693.324256
 11
192.692481
 21
693.361570
  0
LINE
  8
OBRYS
 10
192.692481
 20
693.361570
 11
231.694206
 21
693.565242
  0
LINE
  8
OBRYS
 10
182.694206
 20
739.220377
 11
182.694206
 21
693.324256
  0
ARC
  8
OBRYS
 10
232.171002
 20
690.702457
 40
2.893958
 50
29.321351
 51
98.433631
  0
LINE
  8
OBRYS
 10
502.694206
 20
925.789286
 11
502.694206
 21
909.789286
  0
LINE
  8
OBRYS
 10
502.694206
 20
694.819403
 11
502.694206
 21
678.819403
  0
LINE
  8
OBRYS
 10
481.028131
 20
932.504344
 11
483.694206
 21
932.504344
  0
LINE
  8
OBRYS
 10
483.694206
 20
944.004344
 11
479.694206
 21
944.004344
  0
LINE
  8
OBRYS
 10
483.694206
 20
944.004344
 11
483.694206
 21
932.504344
  0
LINE
  8
OBRYS
 10
483.194206
 20
944.504344
 11
483.694206
 21
944.004344
  0
LINE
  8
OBRYS
 10
479.194206
 20
944.504344
 11
483.194206
 21
944.504344
  0
LINE
  8
OBRYS
 10
177.194206
 20
852.504344
 11
177.194206
 21
772.504344
  0
LINE
  8
OBRYS
 10
175.194206
 20
851.776404
 11
175.194206
 21
773.232285
  0
ARC
  8
OBRYS
 10
69.519581
 20
873.231112
 40
32.110240
 50
253.307616
 51
269.419409
  0
LINE
  8
OBRYS
 10
161.194206
 20
841.122520
 11
69.194206
 21
841.122520
  0
LINE
  8
OBRYS
 10
170.091959
 20
842.473975
 11
170.153833
 21
842.492257
  0
LINE
  8
OBRYS
 10
170.153833
 20
842.492257
 11
169.419374
 21
842.281070
  0
LINE
  8
OBRYS
 10
169.419374
 20
842.281070
 11
167.822731
 21
841.880139
  0
LINE
  8
OBRYS
 10
167.822731
 20
841.880139
 11
165.436117
 21
841.435189
  0
LINE
  8
OBRYS
 10
165.436117
 20
841.435189
 11
162.524386
 21
841.153417
  0
LINE
  8
OBRYS
 10
162.524386
 20
841.153417
 11
161.194206
 21
841.122520
  0
LINE
  8
OBRYS
 10
56.194206
 20
842.504344
 11
56.194206
 21
782.504344
  0
LINE
  8
OBRYS
 10
55.194206
 20
841.504344
 11
55.194206
 21
783.504344
  0
ARC
  8
OBRYS
 10
390.694206
 20
954.497007
 40
5.936890
 50
193.890925
 51
346.109075
  0
ARC
  8
OBRYS
 10
213.934711
 20
918.420543
 40
14.721335
 50
265.166194
 51
284.795945
  0
LINE
  8
OBRYS
 10
212.694206
 20
903.751567
 11
212.694206
 21
927.940123
  0
ARC
  8
OBRYS
 10
213.934711
 20
942.609098
 40
14.721335
 50
265.166194
 51
284.795945
  0
LINE
  8
OBRYS
 10
212.694206
 20
899.361925
 11
212.694206
 21
903.751567
  0
LINE
  8
OBRYS
 10
212.694206
 20
903.751567
 11
182.694206
 21
903.751567
  0
LINE
  8
OBRYS
 10
182.694206
 20
899.361925
 11
182.694206
 21
903.751567
  0
LINE
  8
OBRYS
 10
212.694206
 20
927.940123
 11
212.694206
 21
932.504344
  0
LINE
  8
OBRYS
 10
212.694206
 20
932.504344
 11
217.694206
 21
932.504344
  0
LINE
  8
OBRYS
 10
212.694206
 20
927.940123
 11
182.694206
 21
927.940123
  0
LINE
  8
OBRYS
 10
182.694206
 20
903.751567
 11
182.694206
 21
927.940123
  0
LINE
  8
OBRYS
 10
231.694206
 20
693.258102
 11
231.694206
 21
693.565242
  0
ARC
  8
OBRYS
 10
231.703598
 20
690.267494
 40
2.990623
 50
0.181081
 51
90.179944
  0
LINE
  8
OBRYS
 10
182.694206
 20
927.940123
 11
182.694206
 21
932.504344
  0
LINE
  8
OBRYS
 10
212.694206
 20
932.504344
 11
182.694206
 21
932.504344
  0
ARC
  8
OBRYS
 10
390.694206
 20
953.739416
 40
6.865181
 50
189.772509
 51
350.227491
  0
ARC
  8
OBRYS
 10
383.325496
 20
955.047416
 40
2.545755
 50
283.704983
 51
309.097154
  0
ARC
  8
OBRYS
 10
398.062916
 20
955.047416
 40
2.545755
 50
230.902846
 51
256.295017
  0
ARC
  8
OBRYS
 10
385.716430
 20
953.980448
 40
2.274616
 50
166.683921
 51
218.189215
  0
ARC
  8
OBRYS
 10
395.347659
 20
954.051972
 40
2.577787
 50
325.019779
 51
10.107085
  0
LINE
  8
OBRYS
 10
231.694206
 20
693.258102
 11
182.694206
 21
693.258102
  0
LINE
  8
OBRYS
 10
182.694206
 20
693.258102
 11
182.694206
 21
693.324256
  0
ARC
  8
OBRYS
 10
231.948050
 20
689.854724
 40
2.751203
 50
3.471215
 51
95.294014
  0
LINE
  8
OBRYS
 10
231.694206
 20
692.594191
 11
231.694206
 21
693.258102
  0
LINE
  8
OBRYS
 10
182.694206
 20
692.504344
 11
182.694206
 21
693.258102
  0
LINE
  8
OBRYS
 10
377.974791
 20
954.504344
 11
383.502969
 21
954.504344
  0
LINE
  8
OBRYS
 10
397.885443
 20
954.504344
 11
403.413621
 21
954.504344
  0
LINE
  8
OBRYS
 10
496.694206
 20
702.304344
 11
496.694206
 21
702.825691
  0
LINE
  8
OBRYS
 10
557.694206
 20
702.304344
 11
557.694206
 21
702.825691
  0
LINE
  8
OBRYS
 10
496.694206
 20
901.782997
 11
496.694206
 21
902.304344
  0
LINE
  8
OBRYS
 10
557.694206
 20
901.782997
 11
557.694206
 21
902.304344
  0
LINE
  8
OBRYS
 10
161.194206
 20
846.504344
 11
161.194206
 21
841.122520
  0
LINE
  8
OBRYS
 10
161.194206
 20
846.504344
 11
170.194206
 21
846.504344
  0
LINE
  8
OBRYS
 10
69.194206
 20
846.504344
 11
69.194206
 21
841.122520
  0
LINE
  8
OBRYS
 10
69.194206
 20
846.504344
 11
161.194206
 21
846.504344
  0
LINE
  8
OBRYS
 10
60.194206
 20
846.504344
 11
69.194206
 21
846.504344
  0
LINE
  8
OBRYS
 10
474.194206
 20
949.504344
 11
479.194206
 21
949.504344
  0
LINE
  8
OBRYS
 10
222.194206
 20
949.504344
 11
232.194206
 21
949.504344
  0
LINE
  8
OBRYS
 10
587.694206
 20
952.304344
 11
587.694206
 21
652.304344
  0
LINE
  8
OBRYS
 10
569.694206
 20
949.744393
 11
569.694206
 21
654.864296
  0
LINE
  8
OBRYS
 10
557.694206
 20
902.304344
 11
557.694206
 21
702.304344
  0
ARC
  8
OBRYS
 10
242.716469
 20
642.431993
 40
4.984363
 50
271.922953
 51
344.739920
  0
ARC
  8
OBRYS
 10
483.677971
 20
642.439878
 40
4.992449
 50
195.868648
 51
268.010950
  0
LINE
  8
OBRYS
 10
493.764005
 20
802.304344
 11
493.764005
 21
941.952699
  0
LINE
  8
OBRYS
 10
493.764005
 20
662.655989
 11
493.764005
 21
802.304344
  0
LINE
  8
OBRYS
 10
501.694206
 20
841.130482
 11
501.694206
 21
859.130482
  0
LINE
  8
OBRYS
 10
501.694206
 20
745.459624
 11
501.694206
 21
763.459624
  0
LINE
  8
OBRYS
 10
475.194206
 20
948.504344
 11
462.194206
 21
948.504344
  0
LINE
  8
OBRYS
 10
357.194206
 20
948.504344
 11
344.194206
 21
948.504344
  0
LINE
  8
OBRYS
 10
244.194206
 20
948.504344
 11
231.194206
 21
948.504344
  0
LINE
  8
OBRYS
 10
242.868703
 20
649.249325
 11
242.868703
 21
733.913871
  0
LINE
  8
OBRYS
 10
239.519709
 20
733.819429
 11
239.519709
 21
649.366274
  0
LINE
  8
OBRYS
 10
212.694206
 20
883.757180
 11
212.694206
 21
885.788312
  0
LINE
  8
OBRYS
 10
231.694206
 20
739.220509
 11
231.694206
 21
741.119820
  0
LINE
  8
OBRYS
 10
265.194206
 20
953.254344
 11
244.194206
 21
953.254344
  0
LINE
  8
OBRYS
 10
212.694206
 20
885.788312
 11
212.694206
 21
899.361925
  0
LINE
  8
OBRYS
 10
231.746563
 20
693.565121
 11
231.746563
 21
739.254758
  0
LINE
  8
OBRYS
 10
501.694206
 20
908.789286
 11
501.694206
 21
926.789286
  0
LINE
  8
OBRYS
 10
501.694206
 20
677.819403
 11
501.694206
 21
695.819403
  0
ARC
  8
OBRYS
 10
390.722518
 20
954.681239
 40
5.956529
 50
344.323112
 51
1.354392
  0
ARC
  8
OBRYS
 10
388.621293
 20
954.414505
 40
3.927056
 50
175.788440
 51
199.994725
  0
LINE
  8
OBRYS
 10
405.412402
 20
952.574143
 11
397.459769
 21
952.574143
  0
LINE
  8
OBRYS
 10
383.928643
 20
952.574143
 11
375.976010
 21
952.574143
  0
LINE
  8
OBRYS
 10
397.726091
 20
954.511247
 11
397.885443
 21
954.504344
  0
LINE
  8
OBRYS
 10
383.502969
 20
954.504344
 11
383.714028
 21
954.516469
  0
LINE
  8
OBRYS
 10
480.194206
 20
948.504344
 11
475.194206
 21
948.504344
  0
LINE
  8
OBRYS
 10
231.194206
 20
948.504344
 11
221.194206
 21
948.504344
  0
LINE
  8
OBRYS
 10
571.624407
 20
951.743174
 11
571.624407
 21
652.865514
  0
LINE
  8
OBRYS
 10
566.798904
 20
902.622287
 11
566.798904
 21
701.986401
  0
LINE
  8
OBRYS
 10
1849.321888
 20
944.504344
 11
1849.321888
 21
948.504344
  0
LINE
  8
OBRYS
 10
1836.321888
 20
948.504344
 11
1836.321888
 21
944.504344
  0
ARC
  8
OBRYS
 10
1837.321888
 20
948.504344
 40
1.000000
 50
90.000000
 51
180.000000
  0
ARC
  8
OBRYS
 10
1848.321888
 20
948.504344
 40
1.000000
 50
0.000000
 51
90.000000
  0
ARC
  8
OBRYS
 10
2067.321888
 20
948.504344
 40
1.000000
 50
90.000000
 51
180.000000
  0
ARC
  8
OBRYS
 10
2078.321888
 20
948.504344
 40
1.000000
 50
0.000000
 51
90.000000
  0
LINE
  8
OBRYS
 10
2079.321888
 20
944.504344
 11
2079.321888
 21
948.504344
  0
LINE
  8
OBRYS
 10
2066.321888
 20
948.504344
 11
2066.321888
 21
944.504344
  0
ARC
  8
OBRYS
 10
1781.321888
 20
603.004344
 40
1.000000
 50
180.000000
 51
270.000000
  0
ARC
  8
OBRYS
 10
1781.321888
 20
622.004344
 40
1.000000
 50
90.000000
 51
180.000000
  0
LINE
  8
OBRYS
 10
1782.821888
 20
623.004344
 11
1781.321888
 21
623.004344
  0
LINE
  8
OBRYS
 10
1781.321888
 20
602.004344
 11
1782.821888
 21
602.004344
  0
CIRCLE
  8
OBRYS
 10
1957.821888
 20
970.504344
 40
15.000000
  0
ARC
  8
OBRYS
 10
1957.821888
 20
970.504344
 40
27.000000
 50
314.121366
 51
225.878634
  0
LINE
  8
OBRYS
 10
2132.321888
 20
700.004344
 11
2131.693126
 21
700.004344
  0
LINE
  8
OBRYS
 10
2132.521718
 20
677.004344
 11
2134.321888
 21
677.004344
  0
LINE
  8
OBRYS
 10
2134.321888
 20
698.004344
 11
2132.321888
 21
698.004344
  0
ARC
  8
OBRYS
 10
2134.321888
 20
697.004344
 40
1.000000
 50
0.000000
 51
90.000000
  0
ARC
  8
OBRYS
 10
2134.321888
 20
678.004344
 40
1.000000
 50
270.000000
 51
360.000000
  0
LINE
  8
OBRYS
 10
1905.321888
 20
944.504344
 11
1905.321888
 21
946.004344
  0
LINE
  8
OBRYS
 10
1880.321888
 20
946.004344
 11
1880.321888
 21
944.504344
  0
ARC
  8
OBRYS
 10
1883.071888
 20
953.254344
 40
0.750000
 50
90.000000
 51
180.000000
  0
ARC
  8
OBRYS
 10
1902.571888
 20
953.254344
 40
0.750000
 50
0.000000
 51
90.000000
  0
LINE
  8
OBRYS
 10
1903.321888
 20
946.004344
 11
1903.321888
 21
953.254344
  0
LINE
  8
OBRYS
 10
1882.321888
 20
953.254344
 11
1882.321888
 21
946.004344
  0
ARC
  8
OBRYS
 10
1957.821888
 20
719.804344
 40
6.928203
 50
163.002850
 51
223.002850
  0
LINE
  8
OBRYS
 10
1952.755156
 20
715.079069
 11
1951.196314
 21
721.829625
  0
ARC
  8
OBRYS
 10
1957.821888
 20
719.804344
 40
6.928203
 50
103.002850
 51
163.002850
  0
LINE
  8
OBRYS
 10
1951.196314
 20
721.829625
 11
1956.263046
 21
726.554900
  0
ARC
  8
OBRYS
 10
1957.821888
 20
719.804344
 40
6.928203
 50
343.002850
 51
43.002850
  0
LINE
  8
OBRYS
 10
1962.888620
 20
724.529619
 11
1964.447463
 21
717.779063
  0
ARC
  8
OBRYS
 10
1957.821888
 20
719.804344
 40
6.928203
 50
283.002850
 51
343.002850
  0
LINE
  8
OBRYS
 10
1964.447463
 20
717.779063
 11
1959.380731
 21
713.053788
  0
ARC
  8
OBRYS
 10
1957.821888
 20
719.804344
 40
6.928203
 50
43.002850
 51
103.002850
  0
LINE
  8
OBRYS
 10
1956.263046
 20
726.554900
 11
1962.888620
 21
724.529619
  0
ARC
  8
OBRYS
 10
1957.821888
 20
719.804344
 40
6.928203
 50
223.002850
 51
283.002850
  0
LINE
  8
OBRYS
 10
1959.380731
 20
713.053788
 11
1952.755156
 21
715.079069
  0
CIRCLE
  8
OBRYS
 10
1957.821888
 20
719.804344
 40
10.250000
  0
CIRCLE
  8
OBRYS
 10
1957.821888
 20
719.804344
 40
10.500000
  0
CIRCLE
  8
OBRYS
 10
1957.821888
 20
719.804344
 40
3.500000
  0
ARC
  8
OBRYS
 10
1886.374793
 20
761.054344
 40
6.928203
 50
103.002850
 51
163.002850
  0
LINE
  8
OBRYS
 10
1879.749218
 20
763.079625
 11
1884.815950
 21
767.804900
  0
ARC
  8
OBRYS
 10
1886.374793
 20
761.054344
 40
6.928203
 50
223.002850
 51
283.002850
  0
LINE
  8
OBRYS
 10
1887.933635
 20
754.303788
 11
1881.308061
 21
756.329069
  0
ARC
  8
OBRYS
 10
1886.374793
 20
761.054344
 40
6.928203
 50
43.002850
 51
103.002850
  0
LINE
  8
OBRYS
 10
1884.815950
 20
767.804900
 11
1891.441525
 21
765.779619
  0
ARC
  8
OBRYS
 10
1886.374793
 20
761.054344
 40
6.928203
 50
283.002850
 51
343.002850
  0
LINE
  8
OBRYS
 10
1893.000367
 20
759.029063
 11
1887.933635
 21
754.303788
  0
ARC
  8
OBRYS
 10
1886.374793
 20
761.054344
 40
6.928203
 50
163.002850
 51
223.002850
  0
LINE
  8
OBRYS
 10
1881.308061
 20
756.329069
 11
1879.749218
 21
763.079625
  0
ARC
  8
OBRYS
 10
1886.374793
 20
761.054344
 40
6.928203
 50
343.002850
 51
43.002850
  0
LINE
  8
OBRYS
 10
1891.441525
 20
765.779619
 11
1893.000367
 21
759.029063
  0
CIRCLE
  8
OBRYS
 10
1886.374793
 20
761.054344
 40
10.250000
  0
CIRCLE
  8
OBRYS
 10
1886.374793
 20
761.054344
 40
10.500000
  0
CIRCLE
  8
OBRYS
 10
1886.374793
 20
761.054344
 40
3.500000
  0
ARC
  8
OBRYS
 10
1886.374793
 20
843.554344
 40
6.928203
 50
163.002850
 51
223.002850
  0
LINE
  8
OBRYS
 10
1881.308061
 20
838.829069
 11
1879.749218
 21
845.579625
  0
ARC
  8
OBRYS
 10
1886.374793
 20
843.554344
 40
6.928203
 50
223.002850
 51
283.002850
  0
LINE
  8
OBRYS
 10
1887.933635
 20
836.803788
 11
1881.308061
 21
838.829069
  0
ARC
  8
OBRYS
 10
1886.374793
 20
843.554344
 40
6.928203
 50
43.002850
 51
103.002850
  0
LINE
  8
OBRYS
 10
1884.815950
 20
850.304900
 11
1891.441525
 21
848.279619
  0
ARC
  8
OBRYS
 10
1886.374793
 20
843.554344
 40
6.928203
 50
343.002850
 51
43.002850
  0
LINE
  8
OBRYS
 10
1891.441525
 20
848.279619
 11
1893.000367
 21
841.529063
  0
ARC
  8
OBRYS
 10
1886.374793
 20
843.554344
 40
6.928203
 50
103.002850
 51
163.002850
  0
LINE
  8
OBRYS
 10
1879.749218
 20
845.579625
 11
1884.815950
 21
850.304900
  0
ARC
  8
OBRYS
 10
1886.374793
 20
843.554344
 40
6.928203
 50
283.002850
 51
343.002850
  0
LINE
  8
OBRYS
 10
1893.000367
 20
841.529063
 11
1887.933635
 21
836.803788
  0
CIRCLE
  8
OBRYS
 10
1886.374793
 20
843.554344
 40
10.250000
  0
CIRCLE
  8
OBRYS
 10
1886.374793
 20
843.554344
 40
10.500000
  0
CIRCLE
  8
OBRYS
 10
1886.374793
 20
843.554344
 40
3.500000
  0
ARC
  8
OBRYS
 10
2029.268984
 20
843.554344
 40
6.928203
 50
103.002850
 51
163.002850
  0
LINE
  8
OBRYS
 10
2022.643410
 20
845.579625
 11
2027.710142
 21
850.304900
  0
ARC
  8
OBRYS
 10
2029.268984
 20
843.554344
 40
6.928203
 50
43.002850
 51
103.002850
  0
LINE
  8
OBRYS
 10
2027.710142
 20
850.304900
 11
2034.335716
 21
848.279619
  0
ARC
  8
OBRYS
 10
2029.268984
 20
843.554344
 40
6.928203
 50
223.002850
 51
283.002850
  0
LINE
  8
OBRYS
 10
2030.827827
 20
836.803788
 11
2024.202252
 21
838.829069
  0
ARC
  8
OBRYS
 10
2029.268984
 20
843.554344
 40
6.928203
 50
283.002850
 51
343.002850
  0
LINE
  8
OBRYS
 10
2035.894559
 20
841.529063
 11
2030.827827
 21
836.803788
  0
ARC
  8
OBRYS
 10
2029.268984
 20
843.554344
 40
6.928203
 50
163.002850
 51
223.002850
  0
LINE
  8
OBRYS
 10
2024.202252
 20
838.829069
 11
2022.643410
 21
845.579625
  0
ARC
  8
OBRYS
 10
2029.268984
 20
843.554344
 40
6.928203
 50
343.002850
 51
43.002850
  0
LINE
  8
OBRYS
 10
2034.335716
 20
848.279619
 11
2035.894559
 21
841.529063
  0
CIRCLE
  8
OBRYS
 10
2029.268984
 20
843.554344
 40
10.250000
  0
CIRCLE
  8
OBRYS
 10
2029.268984
 20
843.554344
 40
10.500000
  0
CIRCLE
  8
OBRYS
 10
2029.268984
 20
843.554344
 40
3.500000
  0
ARC
  8
OBRYS
 10
2029.268984
 20
761.054344
 40
6.928203
 50
163.002850
 51
223.002850
  0
LINE
  8
OBRYS
 10
2024.202252
 20
756.329069
 11
2022.643410
 21
763.079625
  0
ARC
  8
OBRYS
 10
2029.268984
 20
761.054344
 40
6.928203
 50
223.002850
 51
283.002850
  0
LINE
  8
OBRYS
 10
2030.827827
 20
754.303788
 11
2024.202252
 21
756.329069
  0
ARC
  8
OBRYS
 10
2029.268984
 20
761.054344
 40
6.928203
 50
43.002850
 51
103.002850
  0
LINE
  8
OBRYS
 10
2027.710142
 20
767.804900
 11
2034.335716
 21
765.779619
  0
ARC
  8
OBRYS
 10
2029.268984
 20
761.054344
 40
6.928203
 50
343.002850
 51
43.002850
  0
LINE
  8
OBRYS
 10
2034.335716
 20
765.779619
 11
2035.894559
 21
759.029063
  0
ARC
  8
OBRYS
 10
2029.268984
 20
761.054344
 40
6.928203
 50
103.002850
 51
163.002850
  0
LINE
  8
OBRYS
 10
2022.643410
 20
763.079625
 11
2027.710142
 21
767.804900
  0
ARC
  8
OBRYS
 10
2029.268984
 20
761.054344
 40
6.928203
 50
283.002850
 51
343.002850
  0
LINE
  8
OBRYS
 10
2035.894559
 20
759.029063
 11
2030.827827
 21
754.303788
  0
CIRCLE
  8
OBRYS
 10
2029.268984
 20
761.054344
 40
10.250000
  0
CIRCLE
  8
OBRYS
 10
2029.268984
 20
761.054344
 40
10.500000
  0
CIRCLE
  8
OBRYS
 10
2029.268984
 20
761.054344
 40
3.500000
  0
ARC
  8
OBRYS
 10
1957.821888
 20
884.804344
 40
6.928203
 50
163.002850
 51
223.002850
  0
LINE
  8
OBRYS
 10
1952.755156
 20
880.079069
 11
1951.196314
 21
886.829625
  0
ARC
  8
OBRYS
 10
1957.821888
 20
884.804344
 40
6.928203
 50
103.002850
 51
163.002850
  0
LINE
  8
OBRYS
 10
1951.196314
 20
886.829625
 11
1956.263046
 21
891.554900
  0
ARC
  8
OBRYS
 10
1957.821888
 20
884.804344
 40
6.928203
 50
283.002850
 51
343.002850
  0
LINE
  8
OBRYS
 10
1964.447463
 20
882.779063
 11
1959.380731
 21
878.053788
  0
ARC
  8
OBRYS
 10
1957.821888
 20
884.804344
 40
6.928203
 50
343.002850
 51
43.002850
  0
LINE
  8
OBRYS
 10
1962.888620
 20
889.529619
 11
1964.447463
 21
882.779063
  0
ARC
  8
OBRYS
 10
1957.821888
 20
884.804344
 40
6.928203
 50
223.002850
 51
283.002850
  0
LINE
  8
OBRYS
 10
1959.380731
 20
878.053788
 11
1952.755156
 21
880.079069
  0
ARC
  8
OBRYS
 10
1957.821888
 20
884.804344
 40
6.928203
 50
43.002850
 51
103.002850
  0
LINE
  8
OBRYS
 10
1956.263046
 20
891.554900
 11
1962.888620
 21
889.529619
  0
CIRCLE
  8
OBRYS
 10
1957.821888
 20
884.804344
 40
10.250000
  0
CIRCLE
  8
OBRYS
 10
1957.821888
 20
884.804344
 40
10.500000
  0
CIRCLE
  8
OBRYS
 10
1957.821888
 20
884.804344
 40
3.500000
  0
CIRCLE
  8
OBRYS
 10
1957.821888
 20
802.304344
 40
36.000000
  0
LINE
  8
OBRYS
 10
1962.821888
 20
824.804344
 11
1952.821888
 21
824.804344
  0
LINE
  8
OBRYS
 10
1952.821888
 20
824.804344
 11
1952.821888
 21
821.828994
  0
ARC
  8
OBRYS
 10
1957.821888
 20
802.304344
 40
20.154701
 50
104.363990
 51
75.636010
  0
LINE
  8
OBRYS
 10
1962.821888
 20
821.828994
 11
1962.821888
 21
824.804344
  0
CIRCLE
  8
OBRYS
 10
1957.821888
 20
802.304344
 40
37.500000
  0
ARC
  8
OBRYS
 10
1957.821888
 20
802.304344
 40
19.000000
 50
105.257523
 51
74.742477
  0
LINE
  8
OBRYS
 10
1962.821888
 20
820.634647
 11
1962.821888
 21
821.828994
  0
LINE
  8
OBRYS
 10
1952.821888
 20
821.828994
 11
1952.821888
 21
820.634647
  0
LINE
  8
OBRYS
 10
1806.486764
 20
632.504344
 11
1806.486764
 21
587.504344
  0
LINE
  8
OBRYS
 10
1860.578194
 20
632.504344
 11
1806.486764
 21
632.504344
  0
LINE
  8
OBRYS
 10
1860.578194
 20
587.504344
 11
1860.578194
 21
632.504344
  0
LINE
  8
OBRYS
 10
1860.578194
 20
587.504344
 11
1806.486764
 21
587.504344
  0
LINE
  8
OBRYS
 10
1806.486764
 20
637.504344
 11
1806.486764
 21
632.504344
  0
LINE
  8
OBRYS
 10
1801.657134
 20
632.504344
 11
1806.486764
 21
632.504344
  0
ARC
  8
OBRYS
 10
1806.573452
 20
632.588078
 40
4.917030
 50
91.010185
 51
180.975761
  0
LINE
  8
OBRYS
 10
1801.657134
 20
587.504344
 11
1801.657134
 21
632.504344
  0
LINE
  8
OBRYS
 10
1806.486764
 20
587.504344
 11
1801.657134
 21
587.504344
  0
LINE
  8
OBRYS
 10
1806.486764
 20
637.504344
 11
1860.578194
 21
637.504344
  0
LINE
  8
OBRYS
 10
1860.578194
 20
637.504344
 11
1860.578194
 21
632.504344
  0
LINE
  8
OBRYS
 10
1865.502232
 20
632.504344
 11
1860.578194
 21
632.504344
  0
LINE
  8
OBRYS
 10
1865.502232
 20
632.504344
 11
1865.502232
 21
587.504344
  0
LINE
  8
OBRYS
 10
1865.502232
 20
587.504344
 11
1860.578194
 21
587.504344
  0
ARC
  8
OBRYS
 10
1860.539920
 20
632.542036
 40
4.962455
 50
359.564808
 51
89.558095
  0
LINE
  8
OBRYS
 10
2055.065583
 20
632.504344
 11
2050.141544
 21
632.504344
  0
ARC
  8
OBRYS
 10
2055.103857
 20
632.542036
 40
4.962455
 50
90.441905
 51
180.435192
  0
LINE
  8
OBRYS
 10
2055.065583
 20
632.504344
 11
2055.065583
 21
637.504344
  0
LINE
  8
OBRYS
 10
2109.157013
 20
587.504344
 11
2109.157013
 21
632.504344
  0
LINE
  8
OBRYS
 10
2055.065583
 20
632.504344
 11
2055.065583
 21
587.504344
  0
LINE
  8
OBRYS
 10
2109.157013
 20
632.504344
 11
2055.065583
 21
632.504344
  0
LINE
  8
OBRYS
 10
2109.157013
 20
587.504344
 11
2055.065583
 21
587.504344
  0
LINE
  8
OBRYS
 10
2055.065583
 20
637.504344
 11
2109.157013
 21
637.504344
  0
LINE
  8
OBRYS
 10
2109.157013
 20
632.504344
 11
2109.157013
 21
637.504344
  0
LINE
  8
OBRYS
 10
2050.141544
 20
587.504344
 11
2050.141544
 21
632.504344
  0
LINE
  8
OBRYS
 10
2055.065583
 20
587.504344
 11
2050.141544
 21
587.504344
  0
LINE
  8
OBRYS
 10
2109.157013
 20
632.504344
 11
2113.986642
 21
632.504344
  0
LINE
  8
OBRYS
 10
2113.986642
 20
632.504344
 11
2113.986642
 21
587.504344
  0
LINE
  8
OBRYS
 10
2113.986642
 20
587.504344
 11
2109.157013
 21
587.504344
  0
ARC
  8
OBRYS
 10
2109.070325
 20
632.588078
 40
4.917030
 50
359.024239
 51
88.989815
  0
LINE
  8
OBRYS
 10
1789.338015
 20
637.504344
 11
1806.486764
 21
637.504344
  0
LINE
  8
OBRYS
 10
1801.657134
 20
632.504344
 11
1782.992259
 21
632.504344
  0
ARC
  8
OBRYS
 10
1788.053203
 20
633.828893
 40
5.231403
 50
180.333534
 51
194.666467
  0
LINE
  8
OBRYS
 10
1782.821888
 20
633.798439
 11
1782.821888
 21
634.885241
  0
ARC
  8
OBRYS
 10
1792.254059
 20
621.531327
 40
16.349093
 50
103.169614
 51
125.234424
  0
ARC
  8
OBRYS
 10
1789.337577
 20
631.415850
 40
6.088494
 50
89.995880
 51
97.630039
  0
LINE
  8
OBRYS
 10
1782.992259
 20
632.504344
 11
1782.992259
 21
587.504344
  0
LINE
  8
OBRYS
 10
1801.657134
 20
587.504344
 11
1782.992259
 21
587.504344
  0
ARC
  8
OBRYS
 10
2127.706451
 20
633.813637
 40
5.115460
 50
345.170221
 51
359.829779
  0
LINE
  8
OBRYS
 10
2132.651518
 20
632.504344
 11
2113.986642
 21
632.504344
  0
LINE
  8
OBRYS
 10
2109.157013
 20
637.504344
 11
2126.305762
 21
637.504344
  0
ARC
  8
OBRYS
 10
2126.305937
 20
631.411911
 40
6.092433
 50
82.372432
 51
90.001649
  0
ARC
  8
OBRYS
 10
2123.810710
 20
622.467988
 40
15.342409
 50
54.031673
 51
77.564289
  0
LINE
  8
OBRYS
 10
2132.821888
 20
634.885241
 11
2132.821888
 21
633.798439
  0
LINE
  8
OBRYS
 10
2132.651518
 20
587.504344
 11
2132.651518
 21
632.504344
  0
LINE
  8
OBRYS
 10
2132.651518
 20
587.504344
 11
2113.986642
 21
587.504344
  0
LINE
  8
OBRYS
 10
1860.578194
 20
637.504344
 11
1871.863120
 21
637.504344
  0
ARC
  8
OBRYS
 10
1871.961824
 20
632.372065
 40
5.133228
 50
1.476629
 51
91.101775
  0
LINE
  8
OBRYS
 10
1877.093348
 20
632.504344
 11
1865.502232
 21
632.504344
  0
LINE
  8
OBRYS
 10
1877.093348
 20
587.504344
 11
1877.093348
 21
632.504344
  0
LINE
  8
OBRYS
 10
1877.093348
 20
587.504344
 11
1865.502232
 21
587.504344
  0
LINE
  8
OBRYS
 10
2050.141544
 20
632.504344
 11
2038.550429
 21
632.504344
  0
ARC
  8
OBRYS
 10
2043.668076
 20
632.386580
 40
5.119002
 50
88.739816
 51
178.681780
  0
LINE
  8
OBRYS
 10
2043.780656
 20
637.504344
 11
2055.065583
 21
637.504344
  0
LINE
  8
OBRYS
 10
2038.550429
 20
632.504344
 11
2038.550429
 21
587.504344
  0
LINE
  8
OBRYS
 10
2050.141544
 20
587.504344
 11
2038.550429
 21
587.504344
  0
LINE
  8
OBRYS
 10
1789.338015
 20
642.504344
 11
1871.863120
 21
642.504344
  0
LINE
  8
OBRYS
 10
1871.863120
 20
642.504344
 11
1871.863120
 21
637.504344
  0
LINE
  8
OBRYS
 10
1789.338015
 20
642.504344
 11
1789.338015
 21
637.504344
  0
ARC
  8
OBRYS
 10
1789.337893
 20
631.791962
 40
10.712382
 50
89.999347
 51
98.135750
  0
LINE
  8
OBRYS
 10
1787.821888
 20
642.396530
 11
1788.529171
 21
637.450437
  0
ARC
  8
OBRYS
 10
1871.939668
 20
632.426616
 40
10.078019
 50
0.441905
 51
90.435192
  0
LINE
  8
OBRYS
 10
1882.017387
 20
632.504344
 11
1877.093348
 21
632.504344
  0
LINE
  8
OBRYS
 10
1905.321888
 20
944.004344
 11
1901.321888
 21
944.004344
  0
LINE
  8
OBRYS
 10
1905.321888
 20
944.004344
 11
1905.321888
 21
942.816799
  0
LINE
  8
OBRYS
 10
1901.321888
 20
944.504344
 11
1905.794024
 21
944.504344
  0
LINE
  8
OBRYS
 10
1905.794024
 20
944.504344
 11
1905.321888
 21
944.004344
  0
LINE
  8
OBRYS
 10
1901.321888
 20
944.504344
 11
1901.321888
 21
944.004344
  0
LINE
  8
OBRYS
 10
2010.321888
 20
944.004344
 11
2007.026665
 21
944.004344
  0
LINE
  8
OBRYS
 10
1908.617112
 20
944.004344
 11
1905.321888
 21
944.004344
  0
LINE
  8
OBRYS
 10
2010.321888
 20
944.004344
 11
2010.321888
 21
942.816799
  0
LINE
  8
OBRYS
 10
1905.794024
 20
944.504344
 11
1910.081340
 21
944.504344
  0
LINE
  8
OBRYS
 10
2005.562437
 20
944.504344
 11
2009.849752
 21
944.504344
  0
LINE
  8
OBRYS
 10
2010.321888
 20
944.004344
 11
2009.849752
 21
944.504344
  0
LINE
  8
OBRYS
 10
2014.321888
 20
944.004344
 11
2010.321888
 21
944.004344
  0
LINE
  8
OBRYS
 10
2009.849752
 20
944.504344
 11
2014.321888
 21
944.504344
  0
LINE
  8
OBRYS
 10
2014.321888
 20
944.004344
 11
2014.321888
 21
944.504344
  0
ARC
  8
OBRYS
 10
2043.704109
 20
632.426616
 40
10.078019
 50
89.564808
 51
179.558095
  0
LINE
  8
OBRYS
 10
2043.780656
 20
642.504344
 11
2043.780656
 21
637.504344
  0
LINE
  8
OBRYS
 10
2033.626390
 20
632.504344
 11
2038.550429
 21
632.504344
  0
LINE
  8
OBRYS
 10
2043.780656
 20
642.504344
 11
2126.305762
 21
642.504344
  0
LINE
  8
OBRYS
 10
2126.305762
 20
642.504344
 11
2126.305762
 21
637.504344
  0
ARC
  8
OBRYS
 10
2126.306066
 20
631.794531
 40
10.709813
 50
81.863273
 51
90.001630
  0
LINE
  8
OBRYS
 10
2127.821888
 20
642.396530
 11
2127.114606
 21
637.450437
  0
LINE
  8
OBRYS
 10
1782.821888
 20
637.714398
 11
1782.857627
 21
637.299394
  0
LINE
  8
OBRYS
 10
1782.857627
 20
637.299394
 11
1782.955312
 21
637.118778
  0
LINE
  8
OBRYS
 10
1782.955312
 20
637.118778
 11
1783.038375
 21
637.120788
  0
LINE
  8
OBRYS
 10
1783.038375
 20
637.120788
 11
1783.227888
 21
637.304094
  0
LINE
  8
OBRYS
 10
1783.227888
 20
637.304094
 11
1783.356897
 21
637.492958
  0
LINE
  8
OBRYS
 10
1783.356897
 20
637.492958
 11
1783.922116
 21
638.464349
  0
LINE
  8
OBRYS
 10
1783.922116
 20
638.464349
 11
1785.101545
 21
640.267721
  0
LINE
  8
OBRYS
 10
1785.101545
 20
640.267721
 11
1786.351936
 21
641.584290
  0
LINE
  8
OBRYS
 10
1786.351936
 20
641.584290
 11
1787.380174
 21
642.234434
  0
LINE
  8
OBRYS
 10
1787.380174
 20
642.234434
 11
1787.821888
 21
642.396530
  0
LINE
  8
OBRYS
 10
1782.821888
 20
634.885241
 11
1782.821888
 21
637.714398
  0
LINE
  8
OBRYS
 10
2127.821888
 20
642.396530
 11
2128.863429
 21
641.901419
  0
LINE
  8
OBRYS
 10
2128.863429
 20
641.901419
 11
2130.257365
 21
640.620695
  0
LINE
  8
OBRYS
 10
2130.257365
 20
640.620695
 11
2131.719090
 21
638.468805
  0
LINE
  8
OBRYS
 10
2131.719090
 20
638.468805
 11
2132.358655
 21
637.383997
  0
LINE
  8
OBRYS
 10
2132.358655
 20
637.383997
 11
2132.561054
 21
637.147553
  0
LINE
  8
OBRYS
 10
2132.561054
 20
637.147553
 11
2132.640817
 21
637.110603
  0
LINE
  8
OBRYS
 10
2132.640817
 20
637.110603
 11
2132.754937
 21
637.201223
  0
LINE
  8
OBRYS
 10
2132.754937
 20
637.201223
 11
2132.794014
 21
637.337256
  0
LINE
  8
OBRYS
 10
2132.794014
 20
637.337256
 11
2132.821888
 21
637.714398
  0
LINE
  8
OBRYS
 10
2132.821888
 20
637.714398
 11
2132.821888
 21
634.885241
  0
LINE
  8
OBRYS
 10
1882.017387
 20
632.504344
 11
1882.017387
 21
587.504344
  0
LINE
  8
OBRYS
 10
1882.017387
 20
587.504344
 11
1877.093348
 21
587.504344
  0
LINE
  8
OBRYS
 10
2033.626390
 20
587.504344
 11
2033.626390
 21
632.504344
  0
LINE
  8
OBRYS
 10
2038.550429
 20
587.504344
 11
2033.626390
 21
587.504344
  0
LINE
  8
OBRYS
 10
2087.821888
 20
944.004344
 11
2014.321888
 21
944.004344
  0
LINE
  8
OBRYS
 10
2087.821888
 20
944.004344
 11
2087.821888
 21
932.504344
  0
LINE
  8
OBRYS
 10
2032.306518
 20
932.504344
 11
2087.821888
 21
932.504344
  0
LINE
  8
OBRYS
 10
1827.821888
 20
944.004344
 11
1827.821888
 21
932.504344
  0
LINE
  8
OBRYS
 10
1901.321888
 20
944.004344
 11
1827.821888
 21
944.004344
  0
LINE
  8
OBRYS
 10
1827.821888
 20
932.504344
 11
1883.337259
 21
932.504344
  0
LINE
  8
OBRYS
 10
1827.821888
 20
944.504344
 11
1827.821888
 21
944.004344
  0
LINE
  8
OBRYS
 10
1827.821888
 20
944.004344
 11
1822.821888
 21
944.004344
  0
LINE
  8
OBRYS
 10
1823.321888
 20
944.504344
 11
1822.821888
 21
944.004344
  0
LINE
  8
OBRYS
 10
1823.321888
 20
944.504344
 11
1827.821888
 21
944.504344
  0
LINE
  8
OBRYS
 10
1822.821888
 20
944.004344
 11
1822.821888
 21
932.504344
  0
LINE
  8
OBRYS
 10
1822.821888
 20
932.504344
 11
1827.821888
 21
932.504344
  0
LINE
  8
OBRYS
 10
1827.821888
 20
944.504344
 11
1901.321888
 21
944.504344
  0
LINE
  8
OBRYS
 10
2087.821888
 20
944.004344
 11
2087.821888
 21
944.504344
  0
LINE
  8
OBRYS
 10
2014.321888
 20
944.504344
 11
2087.821888
 21
944.504344
  0
LINE
  8
OBRYS
 10
2092.821888
 20
944.004344
 11
2087.821888
 21
944.004344
  0
LINE
  8
OBRYS
 10
2092.821888
 20
944.004344
 11
2092.321888
 21
944.504344
  0
LINE
  8
OBRYS
 10
2087.821888
 20
944.504344
 11
2092.321888
 21
944.504344
  0
LINE
  8
OBRYS
 10
2092.821888
 20
944.004344
 11
2092.821888
 21
932.504344
  0
LINE
  8
OBRYS
 10
2087.821888
 20
932.504344
 11
2092.821888
 21
932.504344
  0
LINE
  8
OBRYS
 10
1782.821888
 20
587.504344
 11
1782.821888
 21
633.798439
  0
LINE
  8
OBRYS
 10
1782.992259
 20
587.504344
 11
1782.821888
 21
587.504344
  0
LINE
  8
OBRYS
 10
2132.821888
 20
633.798439
 11
2132.821888
 21
587.504344
  0
LINE
  8
OBRYS
 10
2132.821888
 20
587.504344
 11
2132.651518
 21
587.504344
  0
ARC
  8
OBRYS
 10
1132.821888
 20
652.504344
 40
1000.000000
 50
0.000000
 51
16.260205
  0
LINE
  8
OBRYS
 10
2127.821888
 20
652.504344
 11
2132.821888
 21
652.504344
  0
ARC
  8
OBRYS
 10
1132.821888
 20
652.504344
 40
995.000000
 50
0.000000
 51
16.344199
  0
ARC
  8
OBRYS
 10
2782.821888
 20
652.504344
 40
995.000000
 50
163.655801
 51
180.000000
  0
LINE
  8
OBRYS
 10
1787.821888
 20
652.504344
 11
1782.821888
 21
652.504344
  0
ARC
  8
OBRYS
 10
2782.821888
 20
652.504344
 40
1000.000000
 50
163.739795
 51
180.000000
  0
LINE
  8
OBRYS
 10
1787.821888
 20
652.504344
 11
1787.821888
 21
642.396530
  0
LINE
  8
OBRYS
 10
1782.821888
 20
637.714398
 11
1782.821888
 21
652.504344
  0
LINE
  8
OBRYS
 10
2127.821888
 20
642.396530
 11
2127.821888
 21
652.504344
  0
LINE
  8
OBRYS
 10
2033.626390
 20
587.504344
 11
1882.017387
 21
587.504344
  0
LINE
  8
OBRYS
 10
2132.821888
 20
652.504344
 11
2132.821888
 21
637.714398
  0
LINE
  8
OBRYS
 10
1837.321889
 20
949.504344
 11
1848.321888
 21
949.504344
  0
LINE
  8
OBRYS
 10
2067.321889
 20
949.504344
 11
2078.321888
 21
949.504344
  0
LINE
  8
OBRYS
 10
1780.321888
 20
612.504344
 11
1780.321888
 21
622.004344
  0
LINE
  8
OBRYS
 10
1780.321888
 20
603.004344
 11
1780.321888
 21
612.504344
  0
LINE
  8
OBRYS
 10
1970.892943
 20
952.574143
 11
1944.750834
 21
952.574143
  0
LINE
  8
OBRYS
 10
1947.330481
 20
954.504344
 11
1968.313295
 21
954.504344
  0
ARC
  8
OBRYS
 10
1968.260790
 20
951.745268
 40
2.759576
 50
17.479429
 51
88.909798
  0
ARC
  8
OBRYS
 10
1947.384277
 20
951.743543
 40
2.761326
 50
91.116296
 51
162.494477
  0
ARC
  8
OBRYS
 10
1957.821888
 20
1013.151261
 40
58.396772
 50
259.125637
 51
280.874363
  0
ARC
  8
OBRYS
 10
1967.431704
 20
955.616742
 40
1.419377
 50
308.397344
 51
7.544754
  0
ARC
  8
OBRYS
 10
1948.212073
 20
955.616742
 40
1.419377
 50
172.455246
 51
231.602656
  0
ARC
  8
OBRYS
 10
1969.451838
 20
953.008224
 40
2.861327
 50
1.271409
 51
102.371638
  0
ARC
  8
OBRYS
 10
1946.197024
 20
953.001758
 40
2.866561
 50
77.755329
 51
178.601624
  0
ARC
  8
OBRYS
 10
1942.602478
 20
948.718751
 40
4.413556
 50
60.871952
 51
80.494838
  0
ARC
  8
OBRYS
 10
1973.041299
 20
948.718751
 40
4.413556
 50
99.505162
 51
119.128048
  0
LINE
  8
OBRYS
 10
2132.321888
 20
700.004344
 11
2132.321888
 21
684.123168
  0
LINE
  8
OBRYS
 10
2135.321888
 20
697.004344
 11
2135.321888
 21
678.004344
  0
LINE
  8
OBRYS
 10
1782.821888
 20
588.844090
 11
1782.821888
 21
597.504344
  0
LINE
  8
OBRYS
 10
2132.821888
 20
597.504344
 11
2132.821888
 21
588.844090
  0
LINE
  8
OBRYS
 10
1782.821888
 20
587.504344
 11
1782.821888
 21
588.844090
  0
LINE
  8
OBRYS
 10
2132.821888
 20
587.504344
 11
2132.821888
 21
588.844090
  0
LINE
  8
OBRYS
 10
1880.321888
 20
946.004344
 11
1905.321888
 21
946.004344
  0
LINE
  8
OBRYS
 10
1883.071889
 20
954.004344
 11
1902.571888
 21
954.004344
  0
CIRCLE
  8
OBRYS
 10
1957.821888
 20
802.304344
 40
115.000000
  0
CIRCLE
  8
OBRYS
 10
1864.130240
 20
895.995993
 40
7.500000
  0
CIRCLE
  8
OBRYS
 10
2051.513537
 20
895.995993
 40
7.500000
  0
CIRCLE
  8
OBRYS
 10
1864.130240
 20
708.612696
 40
7.500000
  0
CIRCLE
  8
OBRYS
 10
2051.513537
 20
708.612696
 40
7.500000
  0
CIRCLE
  8
OBRYS
 10
1957.821888
 20
802.304344
 40
150.000000
  0
CIRCLE
  8
OBRYS
 10
1957.821888
 20
802.304344
 40
46.500000
  0
CIRCLE
  8
OBRYS
 10
1886.374793
 20
843.554344
 40
12.000000
  0
CIRCLE
  8
OBRYS
 10
1957.821888
 20
884.804344
 40
12.000000
  0
CIRCLE
  8
OBRYS
 10
2029.268984
 20
843.554344
 40
12.000000
  0
CIRCLE
  8
OBRYS
 10
1886.374793
 20
761.054344
 40
12.000000
  0
CIRCLE
  8
OBRYS
 10
1957.821888
 20
719.804344
 40
12.000000
  0
CIRCLE
  8
OBRYS
 10
2029.268984
 20
761.054344
 40
12.000000
  0
CIRCLE
  8
OBRYS
 10
1957.821888
 20
802.304344
 40
45.000000
  0
ARC
  8
OBRYS
 10
1957.821888
 20
802.304344
 40
137.649573
 50
42.686508
 51
47.313492
  0
ARC
  8
OBRYS
 10
1957.821888
 20
802.304344
 40
137.649573
 50
132.686508
 51
137.313492
  0
ARC
  8
OBRYS
 10
1957.821888
 20
802.304344
 40
137.649573
 50
222.686508
 51
227.313492
  0
ARC
  8
OBRYS
 10
1957.821888
 20
802.304344
 40
137.649573
 50
312.686508
 51
317.313492
  0
ARC
  8
OBRYS
 10
1957.821888
 20
802.304344
 40
139.648355
 50
134.044021
 51
135.955979
  0
ARC
  8
OBRYS
 10
1957.821888
 20
802.304344
 40
139.648355
 50
44.044021
 51
45.955979
  0
ARC
  8
OBRYS
 10
1957.821888
 20
802.304344
 40
139.648355
 50
314.044021
 51
315.955979
  0
ARC
  8
OBRYS
 10
1957.821888
 20
802.304344
 40
139.648355
 50
224.044021
 51
225.955979
  0
LINE
  8
OBRYS
 10
1901.321888
 20
944.004344
 11
1901.321888
 21
941.256674
  0
LINE
  8
OBRYS
 10
2014.321888
 20
944.004344
 11
2014.321888
 21
941.256674
  0
LINE
  8
OBRYS
 10
1849.321888
 20
948.504344
 11
1836.321888
 21
948.504344
  0
LINE
  8
OBRYS
 10
2079.321888
 20
948.504344
 11
2066.321888
 21
948.504344
  0
LINE
  8
OBRYS
 10
1781.321888
 20
612.504344
 11
1781.321888
 21
602.004344
  0
LINE
  8
OBRYS
 10
1781.321888
 20
623.004344
 11
1781.321888
 21
612.504344
  0
LINE
  8
OBRYS
 10
1971.104505
 20
951.557594
 11
1970.962482
 21
952.152740
  0
LINE
  8
OBRYS
 10
1970.962482
 20
952.152740
 11
1970.892943
 21
952.574143
  0
LINE
  8
OBRYS
 10
1944.750834
 20
952.574143
 11
1944.565741
 21
951.616314
  0
LINE
  8
OBRYS
 10
1972.312460
 20
953.071713
 11
1972.334300
 21
952.725956
  0
LINE
  8
OBRYS
 10
1972.334300
 20
952.725956
 11
1972.542854
 21
951.452106
  0
LINE
  8
OBRYS
 10
1943.101560
 20
951.439721
 11
1943.210053
 21
951.877579
  0
LINE
  8
OBRYS
 10
1943.210053
 20
951.877579
 11
1943.331317
 21
953.071713
  0
LINE
  8
OBRYS
 10
2134.321888
 20
677.004344
 11
2134.321888
 21
698.004344
  0
LINE
  8
OBRYS
 10
1903.321888
 20
953.254344
 11
1882.321888
 21
953.254344
  0
ARC
  8
OBRYS
 10
1353.578463
 20
321.080472
 40
6.000000
 50
0.000000
 51
180.000000
  0
ARC
  8
OBRYS
 10
1353.578463
 20
279.080472
 40
6.000000
 50
180.000000
 51
360.000000
  0
LINE
  8
OBRYS
 10
1347.578463
 20
321.080472
 11
1347.578463
 21
279.080472
  0
LINE
  8
OBRYS
 10
1359.578463
 20
279.080472
 11
1359.578463
 21
321.080472
  0
ARC
  8
OBRYS
 10
1346.361525
 20
314.362841
 40
1.264000
 50
292.261413
 51
344.446324
  0
ARC
  8
OBRYS
 10
1360.795401
 20
285.798104
 40
1.264000
 50
112.261413
 51
164.446324
  0
LINE
  8
OBRYS
 10
1360.190192
 20
313.267231
 11
1360.033050
 21
313.350478
  0
LINE
  8
OBRYS
 10
1360.033050
 20
313.350478
 11
1359.714653
 21
313.704837
  0
LINE
  8
OBRYS
 10
1359.714653
 20
313.704837
 11
1359.595969
 21
313.950336
  0
LINE
  8
OBRYS
 10
1359.595969
 20
313.950336
 11
1359.576180
 21
314.027537
  0
LINE
  8
OBRYS
 10
1359.576180
 20
314.027537
 11
1359.576217
 21
314.025036
  0
LINE
  8
OBRYS
 10
1346.977947
 20
286.887772
 11
1347.123875
 21
286.810466
  0
LINE
  8
OBRYS
 10
1347.123875
 20
286.810466
 11
1347.442272
 21
286.456107
  0
LINE
  8
OBRYS
 10
1347.442272
 20
286.456107
 11
1347.560957
 21
286.210608
  0
LINE
  8
OBRYS
 10
1347.560957
 20
286.210608
 11
1347.580746
 21
286.133407
  0
LINE
  8
OBRYS
 10
1347.580746
 20
286.133407
 11
1347.580708
 21
286.135908
  0
LINE
  8
OBRYS
 10
1260.578463
 20
440.080472
 11
1250.508664
 21
439.728827
  0
LINE
  8
OBRYS
 10
1250.508664
 20
160.432117
 11
1260.578463
 21
160.080472
  0
ARC
  8
OBRYS
 10
1250.578463
 20
162.430899
 40
2.000000
 50
180.000000
 51
268.000000
  0
ARC
  8
OBRYS
 10
1250.578463
 20
437.730045
 40
2.000000
 50
92.000000
 51
180.000000
  0
ARC
  8
OBRYS
 10
1260.578463
 20
445.080472
 40
5.000000
 50
270.000000
 51
360.000000
  0
ARC
  8
OBRYS
 10
1260.578463
 20
155.080472
 40
5.000000
 50
0.000000
 51
90.000000
  0
ARC
  8
OBRYS
 10
1242.578463
 20
339.915901
 40
1.000000
 50
180.000000
 51
270.000000
  0
ARC
  8
OBRYS
 10
1242.578463
 20
355.915901
 40
1.000000
 50
90.000000
 51
180.000000
  0
LINE
  8
OBRYS
 10
1248.578463
 20
356.915901
 11
1242.578463
 21
356.915901
  0
LINE
  8
OBRYS
 10
1242.578463
 20
338.915901
 11
1248.578463
 21
338.915901
  0
LINE
  8
OBRYS
 10
1248.578463
 20
261.245043
 11
1242.578463
 21
261.245043
  0
LINE
  8
OBRYS
 10
1242.578463
 20
243.245043
 11
1248.578463
 21
243.245043
  0
ARC
  8
OBRYS
 10
1242.578463
 20
244.245043
 40
1.000000
 50
180.000000
 51
270.000000
  0
ARC
  8
OBRYS
 10
1242.578463
 20
260.245043
 40
1.000000
 50
90.000000
 51
180.000000
  0
LINE
  8
OBRYS
 10
1561.578463
 20
220.080472
 11
1565.078463
 21
220.080472
  0
LINE
  8
OBRYS
 10
1565.078463
 20
380.080472
 11
1561.578463
 21
380.080472
  0
ARC
  8
OBRYS
 10
1531.578463
 20
415.482470
 40
5.000000
 50
180.000000
 51
270.000000
  0
ARC
  8
OBRYS
 10
1531.578463
 20
184.678474
 40
5.000000
 50
90.000000
 51
180.000000
  0
LINE
  8
OBRYS
 10
1561.578463
 20
410.482470
 11
1531.578463
 21
410.482470
  0
LINE
  8
OBRYS
 10
1531.578463
 20
189.678474
 11
1561.578463
 21
189.678474
  0
ARC
  8
OBRYS
 10
1242.578463
 20
176.599380
 40
1.000000
 50
180.000000
 51
270.000000
  0
ARC
  8
OBRYS
 10
1242.578463
 20
192.599380
 40
1.000000
 50
90.000000
 51
180.000000
  0
LINE
  8
OBRYS
 10
1248.578463
 20
193.599380
 11
1242.578463
 21
193.599380
  0
LINE
  8
OBRYS
 10
1242.578463
 20
175.599380
 11
1248.578463
 21
175.599380
  0
LINE
  8
OBRYS
 10
1248.578463
 20
424.569262
 11
1242.578463
 21
424.569262
  0
LINE
  8
OBRYS
 10
1242.578463
 20
406.569262
 11
1248.578463
 21
406.569262
  0
ARC
  8
OBRYS
 10
1242.578463
 20
407.569262
 40
1.000000
 50
180.000000
 51
270.000000
  0
ARC
  8
OBRYS
 10
1242.578463
 20
423.569262
 40
1.000000
 50
90.000000
 51
180.000000
  0
LINE
  8
OBRYS
 10
1567.078463
 20
260.080472
 11
1569.078463
 21
260.808413
  0
LINE
  8
OBRYS
 10
1569.078463
 20
339.352532
 11
1567.078463
 21
340.080472
  0
LINE
  8
OBRYS
 10
1565.078463
 20
260.080472
 11
1567.078463
 21
260.080472
  0
LINE
  8
OBRYS
 10
1567.078463
 20
340.080472
 11
1565.078463
 21
340.080472
  0
LINE
  8
OBRYS
 10
1569.078463
 20
270.080472
 11
1688.078463
 21
270.080472
  0
LINE
  8
OBRYS
 10
1688.078463
 20
330.080472
 11
1569.078463
 21
330.080472
  0
LINE
  8
OBRYS
 10
1688.078463
 20
270.080472
 11
1689.078463
 21
271.080472
  0
LINE
  8
OBRYS
 10
1689.078463
 20
329.080472
 11
1688.078463
 21
330.080472
  0
ARC
  8
OBRYS
 10
1496.578463
 20
430.414482
 40
30.000000
 50
0.387897
 51
73.008197
  0
ARC
  8
OBRYS
 10
1496.578463
 20
169.746462
 40
30.000000
 50
286.894243
 51
359.263040
  0
LINE
  8
OBRYS
 10
1505.313916
 20
459.114514
 11
1504.662543
 21
459.374014
  0
LINE
  8
OBRYS
 10
1504.662543
 20
459.374014
 11
1504.339930
 21
459.606291
  0
LINE
  8
OBRYS
 10
1504.339930
 20
459.606291
 11
1504.290786
 21
459.848329
  0
LINE
  8
OBRYS
 10
1509.607171
 20
457.433191
 11
1509.618110
 21
457.488584
  0
LINE
  8
OBRYS
 10
1509.618110
 20
457.488584
 11
1509.375093
 21
457.750763
  0
LINE
  8
OBRYS
 10
1509.375093
 20
457.750763
 11
1508.426936
 21
458.509781
  0
LINE
  8
OBRYS
 10
1508.426936
 20
458.509781
 11
1507.263769
 21
459.317799
  0
LINE
  8
OBRYS
 10
1507.263769
 20
459.317799
 11
1506.126432
 21
460.083219
  0
LINE
  8
OBRYS
 10
1506.126432
 20
460.083219
 11
1504.350234
 21
461.245449
  0
LINE
  8
OBRYS
 10
1504.350234
 20
461.245449
 11
1502.665199
 21
462.316338
  0
LINE
  8
OBRYS
 10
1502.665199
 20
462.316338
 11
1501.107396
 21
463.278026
  0
LINE
  8
OBRYS
 10
1501.107396
 20
463.278026
 11
1500.279263
 21
463.777384
  0
LINE
  8
OBRYS
 10
1500.279263
 20
463.777384
 11
1499.145702
 21
464.440157
  0
LINE
  8
OBRYS
 10
1499.145702
 20
464.440157
 11
1497.605627
 21
465.289573
  0
LINE
  8
OBRYS
 10
1497.605627
 20
465.289573
 11
1496.859348
 21
465.749331
  0
LINE
  8
OBRYS
 10
1496.859348
 20
465.749331
 11
1496.264329
 21
466.251863
  0
LINE
  8
OBRYS
 10
1496.264329
 20
466.251863
 11
1495.731927
 21
466.752439
  0
LINE
  8
OBRYS
 10
1495.731927
 20
466.752439
 11
1495.065042
 21
467.208303
  0
LINE
  8
OBRYS
 10
1495.065042
 20
467.208303
 11
1493.910966
 21
467.583991
  0
LINE
  8
OBRYS
 10
1493.910966
 20
132.576953
 11
1494.860307
 21
132.926135
  0
LINE
  8
OBRYS
 10
1494.860307
 20
132.926135
 11
1495.283616
 21
133.310256
  0
LINE
  8
OBRYS
 10
1495.283616
 20
133.310256
 11
1495.641877
 21
133.686902
  0
LINE
  8
OBRYS
 10
1495.641877
 20
133.686902
 11
1495.929866
 21
133.921666
  0
LINE
  8
OBRYS
 10
1495.929866
 20
133.921666
 11
1496.267705
 21
134.143394
  0
LINE
  8
OBRYS
 10
1496.267705
 20
134.143394
 11
1496.559989
 21
134.308951
  0
LINE
  8
OBRYS
 10
1496.559989
 20
134.308951
 11
1496.865644
 21
134.467909
  0
LINE
  8
OBRYS
 10
1496.865644
 20
134.467909
 11
1497.560245
 21
134.810438
  0
LINE
  8
OBRYS
 10
1497.560245
 20
134.810438
 11
1498.194741
 21
135.143838
  0
LINE
  8
OBRYS
 10
1498.194741
 20
135.143838
 11
1498.643771
 21
135.412364
  0
LINE
  8
OBRYS
 10
1498.643771
 20
135.412364
 11
1499.057931
 21
135.677900
  0
LINE
  8
OBRYS
 10
1499.057931
 20
135.677900
 11
1499.494495
 21
135.965670
  0
LINE
  8
OBRYS
 10
1499.494495
 20
135.965670
 11
1499.897218
 21
136.230412
  0
LINE
  8
OBRYS
 10
1499.897218
 20
136.230412
 11
1500.262543
 21
136.467373
  0
LINE
  8
OBRYS
 10
1500.262543
 20
136.467373
 11
1500.590392
 21
136.670009
  0
LINE
  8
OBRYS
 10
1500.590392
 20
136.670009
 11
1501.018482
 21
136.908379
  0
LINE
  8
OBRYS
 10
1501.018482
 20
136.908379
 11
1501.390420
 21
137.104073
  0
LINE
  8
OBRYS
 10
1501.390420
 20
137.104073
 11
1502.466259
 21
137.727667
  0
LINE
  8
OBRYS
 10
1502.466259
 20
137.727667
 11
1503.719163
 21
138.510817
  0
LINE
  8
OBRYS
 10
1503.719163
 20
138.510817
 11
1505.224709
 21
139.483337
  0
LINE
  8
OBRYS
 10
1505.224709
 20
139.483337
 11
1506.622967
 21
140.409351
  0
LINE
  8
OBRYS
 10
1506.622967
 20
140.409351
 11
1508.100245
 21
141.420859
  0
LINE
  8
OBRYS
 10
1508.100245
 20
141.420859
 11
1508.853149
 21
141.970796
  0
LINE
  8
OBRYS
 10
1508.853149
 20
141.970796
 11
1509.391269
 21
142.425279
  0
LINE
  8
OBRYS
 10
1509.391269
 20
142.425279
 11
1509.622046
 21
142.685987
  0
LINE
  8
OBRYS
 10
1509.622046
 20
142.685987
 11
1509.587108
 21
142.704490
  0
LINE
  8
OBRYS
 10
1504.313803
 20
140.321416
 11
1504.304491
 21
140.514378
  0
LINE
  8
OBRYS
 10
1504.304491
 20
140.514378
 11
1504.619574
 21
140.763148
  0
LINE
  8
OBRYS
 10
1504.619574
 20
140.763148
 11
1505.313916
 21
141.046430
  0
LINE
  8
OBRYS
 10
1242.578463
 20
175.591682
 11
1248.578463
 21
175.591682
  0
ARC
  8
OBRYS
 10
1242.578463
 20
176.591682
 40
1.000000
 50
180.000000
 51
270.000000
  0
ARC
  8
OBRYS
 10
1242.578463
 20
407.561565
 40
1.000000
 50
180.000000
 51
270.000000
  0
LINE
  8
OBRYS
 10
1242.578463
 20
406.561565
 11
1248.578463
 21
406.561565
  0
LINE
  8
OBRYS
 10
1419.078463
 20
126.015298
 11
1419.078463
 21
125.580472
  0
LINE
  8
OBRYS
 10
1444.078463
 20
125.580472
 11
1444.078463
 21
126.014316
  0
LINE
  8
OBRYS
 10
1421.078463
 20
125.580472
 11
1421.078463
 21
123.580472
  0
LINE
  8
OBRYS
 10
1442.078463
 20
123.580472
 11
1442.078463
 21
125.580472
  0
ARC
  8
OBRYS
 10
1441.078463
 20
123.580472
 40
1.000000
 50
270.000000
 51
360.000000
  0
ARC
  8
OBRYS
 10
1422.078463
 20
123.580472
 40
1.000000
 50
180.000000
 51
270.000000
  0
LINE
  8
OBRYS
 10
1304.078463
 20
475.080472
 11
1304.078463
 21
476.580472
  0
LINE
  8
OBRYS
 10
1283.078463
 20
476.580472
 11
1283.078463
 21
475.080472
  0
ARC
  8
OBRYS
 10
1284.078463
 20
476.580472
 40
1.000000
 50
90.000000
 51
180.000000
  0
ARC
  8
OBRYS
 10
1303.078463
 20
476.580472
 40
1.000000
 50
0.000000
 51
90.000000
  0
LINE
  8
OBRYS
 10
1156.578463
 20
150.080472
 11
1172.648262
 21
150.641642
  0
LINE
  8
OBRYS
 10
1172.648262
 20
449.519302
 11
1156.578463
 21
450.080472
  0
ARC
  8
OBRYS
 10
1172.578463
 20
152.640424
 40
2.000000
 50
272.000000
 51
360.000000
  0
ARC
  8
OBRYS
 10
1172.578463
 20
447.520521
 40
2.000000
 50
0.000000
 51
88.000000
  0
ARC
  8
OBRYS
 10
1177.578463
 20
196.764357
 40
3.000000
 50
92.000000
 51
180.000000
  0
ARC
  8
OBRYS
 10
1177.578463
 20
403.396588
 40
3.000000
 50
180.000000
 51
268.000000
  0
LINE
  8
OBRYS
 10
1177.473764
 20
199.762529
 11
1186.578463
 21
200.080472
  0
LINE
  8
OBRYS
 10
1186.578463
 20
400.080472
 11
1177.473764
 21
400.398415
  0
ARC
  8
OBRYS
 10
1348.844955
 20
311.491267
 40
2.624064
 50
140.750008
 51
200.509835
  0
LINE
  8
OBRYS
 10
1360.344026
 20
287.009418
 11
1360.629441
 21
287.322924
  0
LINE
  8
OBRYS
 10
1360.629441
 20
287.322924
 11
1360.800324
 21
287.836727
  0
LINE
  8
OBRYS
 10
1360.800324
 20
287.836727
 11
1360.834755
 21
288.493146
  0
LINE
  8
OBRYS
 10
1360.834755
 20
288.493146
 11
1360.786431
 21
289.233191
  0
LINE
  8
OBRYS
 10
1360.786431
 20
289.233191
 11
1360.769700
 21
289.589065
  0
ARC
  8
OBRYS
 10
1357.958641
 20
311.432964
 40
2.939986
 50
342.969104
 51
35.771053
  0
LINE
  8
OBRYS
 10
1346.387225
 20
289.589065
 11
1346.338753
 21
288.800988
  0
LINE
  8
OBRYS
 10
1346.338753
 20
288.800988
 11
1346.326729
 21
288.097357
  0
LINE
  8
OBRYS
 10
1346.326729
 20
288.097357
 11
1346.436071
 21
287.525878
  0
LINE
  8
OBRYS
 10
1346.436071
 20
287.525878
 11
1346.674288
 21
287.121811
  0
LINE
  8
OBRYS
 10
1346.674288
 20
287.121811
 11
1346.812899
 21
287.009418
  0
ARC
  8
OBRYS
 10
1353.578463
 20
300.080472
 40
14.718196
 50
297.366034
 51
62.633966
  0
ARC
  8
OBRYS
 10
1353.578463
 20
300.080472
 40
12.719415
 50
304.428325
 51
55.571675
  0
ARC
  8
OBRYS
 10
1353.578463
 20
300.080472
 40
12.719415
 50
124.428325
 51
235.571675
  0
ARC
  8
OBRYS
 10
1353.578463
 20
300.080472
 40
14.718196
 50
117.366034
 51
242.633966
  0
CIRCLE
  8
OBRYS
 10
1489.578463
 20
365.080472
 40
9.750000
  0
CIRCLE
  8
OBRYS
 10
1489.578463
 20
365.080472
 40
10.500000
  0
LINE
  8
OBRYS
 10
1494.197265
 20
365.080472
 11
1491.887864
 21
369.080472
  0
LINE
  8
OBRYS
 10
1491.887864
 20
369.080472
 11
1487.269062
 21
369.080472
  0
LINE
  8
OBRYS
 10
1487.269062
 20
369.080472
 11
1484.959661
 21
365.080472
  0
LINE
  8
OBRYS
 10
1484.959661
 20
365.080472
 11
1487.269062
 21
361.080472
  0
LINE
  8
OBRYS
 10
1487.269062
 20
361.080472
 11
1491.887864
 21
361.080472
  0
LINE
  8
OBRYS
 10
1491.887864
 20
361.080472
 11
1494.197265
 21
365.080472
  0
ARC
  8
OBRYS
 10
1353.578463
 20
300.080472
 40
15.000000
 50
113.578178
 51
246.421822
  0
ARC
  8
OBRYS
 10
1353.578463
 20
300.080472
 40
15.000000
 50
293.578178
 51
66.421822
  0
CIRCLE
  8
OBRYS
 10
1275.578463
 20
415.080472
 40
5.500000
  0
CIRCLE
  8
OBRYS
 10
1275.578463
 20
415.080472
 40
6.500000
  0
CIRCLE
  8
OBRYS
 10
1393.578463
 20
415.080472
 40
5.500000
  0
CIRCLE
  8
OBRYS
 10
1393.578463
 20
415.080472
 40
6.500000
  0
CIRCLE
  8
OBRYS
 10
1506.578463
 20
415.080472
 40
5.500000
  0
CIRCLE
  8
OBRYS
 10
1506.578463
 20
415.080472
 40
6.500000
  0
LINE
  8
OBRYS
 10
1396.465214
 20
415.080472
 11
1395.021838
 21
417.580472
  0
LINE
  8
OBRYS
 10
1395.021838
 20
417.580472
 11
1392.135087
 21
417.580472
  0
LINE
  8
OBRYS
 10
1392.135087
 20
417.580472
 11
1390.691711
 21
415.080472
  0
LINE
  8
OBRYS
 10
1390.691711
 20
415.080472
 11
1392.135087
 21
412.580472
  0
LINE
  8
OBRYS
 10
1392.135087
 20
412.580472
 11
1395.021838
 21
412.580472
  0
LINE
  8
OBRYS
 10
1395.021838
 20
412.580472
 11
1396.465214
 21
415.080472
  0
LINE
  8
OBRYS
 10
1278.465214
 20
415.080472
 11
1277.021838
 21
417.580472
  0
LINE
  8
OBRYS
 10
1277.021838
 20
417.580472
 11
1274.135087
 21
417.580472
  0
LINE
  8
OBRYS
 10
1274.135087
 20
417.580472
 11
1272.691711
 21
415.080472
  0
LINE
  8
OBRYS
 10
1272.691711
 20
415.080472
 11
1274.135087
 21
412.580472
  0
LINE
  8
OBRYS
 10
1274.135087
 20
412.580472
 11
1277.021838
 21
412.580472
  0
LINE
  8
OBRYS
 10
1277.021838
 20
412.580472
 11
1278.465214
 21
415.080472
  0
LINE
  8
OBRYS
 10
1503.691711
 20
415.080472
 11
1505.135087
 21
412.580472
  0
LINE
  8
OBRYS
 10
1505.135087
 20
412.580472
 11
1508.021838
 21
412.580472
  0
LINE
  8
OBRYS
 10
1508.021838
 20
412.580472
 11
1509.465214
 21
415.080472
  0
LINE
  8
OBRYS
 10
1509.465214
 20
415.080472
 11
1508.021838
 21
417.580472
  0
LINE
  8
OBRYS
 10
1508.021838
 20
417.580472
 11
1505.135087
 21
417.580472
  0
LINE
  8
OBRYS
 10
1505.135087
 20
417.580472
 11
1503.691711
 21
415.080472
  0
CIRCLE
  8
OBRYS
 10
1516.578463
 20
300.080472
 40
5.500000
  0
CIRCLE
  8
OBRYS
 10
1516.578463
 20
300.080472
 40
6.500000
  0
CIRCLE
  8
OBRYS
 10
1270.578463
 20
300.080472
 40
5.500000
  0
CIRCLE
  8
OBRYS
 10
1270.578463
 20
300.080472
 40
6.500000
  0
LINE
  8
OBRYS
 10
1273.465214
 20
300.080472
 11
1272.021838
 21
302.580472
  0
LINE
  8
OBRYS
 10
1272.021838
 20
302.580472
 11
1269.135087
 21
302.580472
  0
LINE
  8
OBRYS
 10
1269.135087
 20
302.580472
 11
1267.691711
 21
300.080472
  0
LINE
  8
OBRYS
 10
1267.691711
 20
300.080472
 11
1269.135087
 21
297.580472
  0
LINE
  8
OBRYS
 10
1269.135087
 20
297.580472
 11
1272.021838
 21
297.580472
  0
LINE
  8
OBRYS
 10
1272.021838
 20
297.580472
 11
1273.465214
 21
300.080472
  0
LINE
  8
OBRYS
 10
1515.135087
 20
297.580472
 11
1518.021838
 21
297.580472
  0
LINE
  8
OBRYS
 10
1513.691711
 20
300.080472
 11
1515.135087
 21
297.580472
  0
LINE
  8
OBRYS
 10
1518.021838
 20
297.580472
 11
1519.465214
 21
300.080472
  0
LINE
  8
OBRYS
 10
1515.135087
 20
302.580472
 11
1513.691711
 21
300.080472
  0
LINE
  8
OBRYS
 10
1519.465214
 20
300.080472
 11
1518.021838
 21
302.580472
  0
LINE
  8
OBRYS
 10
1518.021838
 20
302.580472
 11
1515.135087
 21
302.580472
  0
CIRCLE
  8
OBRYS
 10
1506.578463
 20
185.080472
 40
5.500000
  0
LINE
  8
OBRYS
 10
1503.691711
 20
185.080472
 11
1505.135087
 21
182.580472
  0
LINE
  8
OBRYS
 10
1505.135087
 20
182.580472
 11
1508.021838
 21
182.580472
  0
LINE
  8
OBRYS
 10
1508.021838
 20
182.580472
 11
1509.465214
 21
185.080472
  0
LINE
  8
OBRYS
 10
1509.465214
 20
185.080472
 11
1508.021838
 21
187.580472
  0
LINE
  8
OBRYS
 10
1508.021838
 20
187.580472
 11
1505.135087
 21
187.580472
  0
LINE
  8
OBRYS
 10
1505.135087
 20
187.580472
 11
1503.691711
 21
185.080472
  0
CIRCLE
  8
OBRYS
 10
1506.578463
 20
185.080472
 40
6.500000
  0
CIRCLE
  8
OBRYS
 10
1275.578463
 20
185.080472
 40
5.500000
  0
LINE
  8
OBRYS
 10
1278.465214
 20
185.080472
 11
1277.021838
 21
187.580472
  0
LINE
  8
OBRYS
 10
1277.021838
 20
187.580472
 11
1274.135087
 21
187.580472
  0
LINE
  8
OBRYS
 10
1274.135087
 20
187.580472
 11
1272.691711
 21
185.080472
  0
LINE
  8
OBRYS
 10
1272.691711
 20
185.080472
 11
1274.135087
 21
182.580472
  0
LINE
  8
OBRYS
 10
1274.135087
 20
182.580472
 11
1277.021838
 21
182.580472
  0
LINE
  8
OBRYS
 10
1277.021838
 20
182.580472
 11
1278.465214
 21
185.080472
  0
CIRCLE
  8
OBRYS
 10
1275.578463
 20
185.080472
 40
6.500000
  0
CIRCLE
  8
OBRYS
 10
1393.578463
 20
185.080472
 40
5.500000
  0
CIRCLE
  8
OBRYS
 10
1393.578463
 20
185.080472
 40
6.500000
  0
LINE
  8
OBRYS
 10
1396.465214
 20
185.080472
 11
1395.021838
 21
187.580472
  0
LINE
  8
OBRYS
 10
1395.021838
 20
187.580472
 11
1392.135087
 21
187.580472
  0
LINE
  8
OBRYS
 10
1392.135087
 20
187.580472
 11
1390.691711
 21
185.080472
  0
LINE
  8
OBRYS
 10
1390.691711
 20
185.080472
 11
1392.135087
 21
182.580472
  0
LINE
  8
OBRYS
 10
1392.135087
 20
182.580472
 11
1395.021838
 21
182.580472
  0
LINE
  8
OBRYS
 10
1395.021838
 20
182.580472
 11
1396.465214
 21
185.080472
  0
CIRCLE
  8
OBRYS
 10
1489.578463
 20
365.080472
 40
12.500000
  0
LINE
  8
OBRYS
 10
1495.578463
 20
434.580472
 11
1269.578463
 21
434.580472
  0
LINE
  8
OBRYS
 10
1269.578463
 20
434.580472
 11
1269.578463
 21
435.080472
  0
LINE
  8
OBRYS
 10
1269.578463
 20
435.080472
 11
1495.578463
 21
435.080472
  0
LINE
  8
OBRYS
 10
1495.578463
 20
434.580472
 11
1495.578463
 21
435.080472
  0
ARC
  8
OBRYS
 10
1269.578463
 20
430.080472
 40
4.500000
 50
90.000000
 51
180.000000
  0
LINE
  8
OBRYS
 10
1265.078463
 20
430.080472
 11
1264.578463
 21
430.080472
  0
ARC
  8
OBRYS
 10
1269.578463
 20
430.080472
 40
5.000000
 50
90.000000
 51
180.000000
  0
ARC
  8
OBRYS
 10
1495.578463
 20
405.080472
 40
29.500000
 50
0.000000
 51
90.000000
  0
ARC
  8
OBRYS
 10
1495.578463
 20
405.080472
 40
30.000000
 50
0.000000
 51
90.000000
  0
LINE
  8
OBRYS
 10
1525.078463
 20
405.080472
 11
1525.578463
 21
405.080472
  0
LINE
  8
OBRYS
 10
1265.078463
 20
430.080472
 11
1265.078463
 21
356.580472
  0
LINE
  8
OBRYS
 10
1525.078463
 20
195.080472
 11
1525.078463
 21
405.080472
  0
ARC
  8
OBRYS
 10
1495.578463
 20
195.080472
 40
29.500000
 50
270.000000
 51
360.000000
  0
LINE
  8
OBRYS
 10
1269.578463
 20
165.580472
 11
1495.578463
 21
165.580472
  0
ARC
  8
OBRYS
 10
1269.578463
 20
170.080472
 40
4.500000
 50
180.000000
 51
270.000000
  0
LINE
  8
OBRYS
 10
1265.078463
 20
243.580472
 11
1265.078463
 21
170.080472
  0
ARC
  8
OBRYS
 10
1260.578463
 20
243.580472
 40
4.500000
 50
0.000000
 51
83.620630
  0
LINE
  8
OBRYS
 10
1261.078463
 20
352.108336
 11
1261.078463
 21
248.052608
  0
ARC
  8
OBRYS
 10
1260.578463
 20
356.580472
 40
4.500000
 50
276.379370
 51
360.000000
  0
LINE
  8
OBRYS
 10
1265.078463
 20
356.580472
 11
1264.578463
 21
356.580472
  0
LINE
  8
OBRYS
 10
1264.578463
 20
356.580472
 11
1264.578463
 21
430.080472
  0
LINE
  8
OBRYS
 10
1525.578463
 20
405.080472
 11
1525.578463
 21
195.080472
  0
LINE
  8
OBRYS
 10
1525.578463
 20
195.080472
 11
1525.078463
 21
195.080472
  0
LINE
  8
OBRYS
 10
1261.078463
 20
352.108336
 11
1260.578463
 21
352.580472
  0
ARC
  8
OBRYS
 10
1260.578463
 20
356.580472
 40
4.000000
 50
270.000000
 51
360.000000
  0
LINE
  8
OBRYS
 10
1260.578463
 20
247.580472
 11
1261.078463
 21
248.052608
  0
LINE
  8
OBRYS
 10
1260.578463
 20
247.580472
 11
1260.578463
 21
352.580472
  0
ARC
  8
OBRYS
 10
1260.578463
 20
243.580472
 40
4.000000
 50
0.000000
 51
90.000000
  0
LINE
  8
OBRYS
 10
1264.578463
 20
243.580472
 11
1265.078463
 21
243.580472
  0
LINE
  8
OBRYS
 10
1264.578463
 20
170.080472
 11
1264.578463
 21
243.580472
  0
LINE
  8
OBRYS
 10
1264.578463
 20
170.080472
 11
1265.078463
 21
170.080472
  0
ARC
  8
OBRYS
 10
1495.578463
 20
195.080472
 40
30.000000
 50
270.000000
 51
360.000000
  0
LINE
  8
OBRYS
 10
1495.578463
 20
165.080472
 11
1495.578463
 21
165.580472
  0
ARC
  8
OBRYS
 10
1269.578463
 20
170.080472
 40
5.000000
 50
180.000000
 51
270.000000
  0
LINE
  8
OBRYS
 10
1269.578463
 20
165.080472
 11
1269.578463
 21
165.580472
  0
LINE
  8
OBRYS
 10
1495.578463
 20
165.080472
 11
1269.578463
 21
165.080472
  0
LINE
  8
OBRYS
 10
1260.578463
 20
352.580472
 11
1260.578463
 21
440.080472
  0
LINE
  8
OBRYS
 10
1260.578463
 20
160.080472
 11
1260.578463
 21
247.580472
  0
LINE
  8
OBRYS
 10
1248.578463
 20
162.430899
 11
1248.578463
 21
437.730045
  0
LINE
  8
OBRYS
 10
1496.578463
 20
435.080472
 11
1496.578463
 21
459.960895
  0
ARC
  8
OBRYS
 10
1496.803542
 20
430.185948
 40
29.775798
 50
0.439760
 51
90.433110
  0
LINE
  8
OBRYS
 10
1526.578463
 20
430.414482
 11
1526.578463
 21
403.789233
  0
LINE
  8
OBRYS
 10
1526.578463
 20
403.789233
 11
1526.029201
 21
409.784025
  0
LINE
  8
OBRYS
 10
1526.029201
 20
409.784025
 11
1524.381776
 21
415.552422
  0
LINE
  8
OBRYS
 10
1524.381776
 20
415.552422
 11
1521.682968
 21
420.941295
  0
LINE
  8
OBRYS
 10
1521.682968
 20
420.941295
 11
1518.026619
 21
425.676351
  0
LINE
  8
OBRYS
 10
1518.026619
 20
425.676351
 11
1513.494209
 21
429.644958
  0
LINE
  8
OBRYS
 10
1513.494209
 20
429.644958
 11
1510.977948
 21
431.248531
  0
LINE
  8
OBRYS
 10
1510.977948
 20
431.248531
 11
1508.294983
 21
432.598285
  0
LINE
  8
OBRYS
 10
1508.294983
 20
432.598285
 11
1502.558612
 21
434.459737
  0
LINE
  8
OBRYS
 10
1502.558612
 20
434.459737
 11
1496.578463
 21
435.080358
  0
LINE
  8
OBRYS
 10
1526.578463
 20
196.371712
 11
1526.578463
 21
169.746462
  0
ARC
  8
OBRYS
 10
1496.803542
 20
169.974997
 40
29.775798
 50
269.566890
 51
359.560240
  0
LINE
  8
OBRYS
 10
1496.578463
 20
140.200049
 11
1496.578463
 21
165.080472
  0
LINE
  8
OBRYS
 10
1496.578463
 20
165.080586
 11
1496.964904
 21
165.120612
  0
LINE
  8
OBRYS
 10
1497.721819
 20
165.199010
 11
1502.545786
 21
165.698653
  0
LINE
  8
OBRYS
 10
1502.545786
 20
165.698653
 11
1508.271841
 21
167.552442
  0
LINE
  8
OBRYS
 10
1508.271841
 20
167.552442
 11
1513.474066
 21
170.501661
  0
LINE
  8
OBRYS
 10
1513.474066
 20
170.501661
 11
1518.011439
 21
174.468424
  0
LINE
  8
OBRYS
 10
1518.011439
 20
174.468424
 11
1521.669548
 21
179.198300
  0
LINE
  8
OBRYS
 10
1521.669548
 20
179.198300
 11
1524.372245
 21
184.584017
  0
LINE
  8
OBRYS
 10
1524.372245
 20
184.584017
 11
1526.026818
 21
190.363422
  0
LINE
  8
OBRYS
 10
1526.026818
 20
190.363422
 11
1526.578463
 21
196.371712
  0
LINE
  8
OBRYS
 10
1526.578463
 20
403.789233
 11
1526.578463
 21
321.546831
  0
LINE
  8
OBRYS
 10
1531.578463
 20
312.886577
 11
1531.568463
 21
312.896577
  0
LINE
  8
OBRYS
 10
1531.568463
 20
312.896577
 11
1528.720491
 21
316.013615
  0
LINE
  8
OBRYS
 10
1528.720491
 20
316.013615
 11
1527.763855
 21
317.447242
  0
LINE
  8
OBRYS
 10
1527.763855
 20
317.447242
 11
1527.025250
 21
319.046831
  0
LINE
  8
OBRYS
 10
1527.025250
 20
319.046831
 11
1526.578463
 21
321.546831
  0
LINE
  8
OBRYS
 10
1531.578463
 20
312.886577
 11
1561.578463
 21
312.886577
  0
LINE
  8
OBRYS
 10
1561.578463
 20
312.886577
 11
1561.578463
 21
287.274367
  0
LINE
  8
OBRYS
 10
1531.578463
 20
287.274367
 11
1561.578463
 21
287.274367
  0
LINE
  8
OBRYS
 10
1526.578463
 20
278.614113
 11
1527.025250
 21
281.114113
  0
LINE
  8
OBRYS
 10
1527.025250
 20
281.114113
 11
1527.742742
 21
282.676566
  0
LINE
  8
OBRYS
 10
1527.742742
 20
282.676566
 11
1528.720491
 21
284.147330
  0
LINE
  8
OBRYS
 10
1528.720491
 20
284.147330
 11
1531.568463
 21
287.264367
  0
LINE
  8
OBRYS
 10
1531.568463
 20
287.264367
 11
1531.578463
 21
287.274367
  0
LINE
  8
OBRYS
 10
1526.578463
 20
278.614113
 11
1526.578463
 21
196.371712
  0
LINE
  8
OBRYS
 10
1491.578463
 20
470.017277
 11
1491.578463
 21
475.080472
  0
LINE
  8
OBRYS
 10
1491.937447
 20
467.707100
 11
1491.515827
 21
467.857774
  0
LINE
  8
OBRYS
 10
1491.515827
 20
467.857774
 11
1491.468961
 21
468.048511
  0
LINE
  8
OBRYS
 10
1491.468961
 20
468.048511
 11
1491.651522
 21
468.200711
  0
LINE
  8
OBRYS
 10
1491.651522
 20
468.200711
 11
1492.040843
 21
468.418692
  0
LINE
  8
OBRYS
 10
1492.040843
 20
468.418692
 11
1492.361121
 21
468.610646
  0
LINE
  8
OBRYS
 10
1492.361121
 20
468.610646
 11
1492.430759
 21
468.683346
  0
LINE
  8
OBRYS
 10
1492.430759
 20
468.683346
 11
1492.442953
 21
468.713995
  0
LINE
  8
OBRYS
 10
1492.442953
 20
468.713995
 11
1492.443393
 21
468.727907
  0
LINE
  8
OBRYS
 10
1492.443393
 20
468.727907
 11
1492.280156
 21
468.862680
  0
LINE
  8
OBRYS
 10
1492.280156
 20
468.862680
 11
1492.079608
 21
469.010208
  0
LINE
  8
OBRYS
 10
1492.079608
 20
469.010208
 11
1491.703758
 21
469.469487
  0
LINE
  8
OBRYS
 10
1491.703758
 20
469.469487
 11
1491.578463
 21
470.017277
  0
LINE
  8
OBRYS
 10
1496.578463
 20
459.960895
 11
1496.185174
 21
460.108853
  0
LINE
  8
OBRYS
 10
1496.185174
 20
460.108853
 11
1495.884246
 21
460.276391
  0
LINE
  8
OBRYS
 10
1495.884246
 20
460.276391
 11
1495.675679
 21
460.463168
  0
LINE
  8
OBRYS
 10
1495.675679
 20
460.463168
 11
1495.527889
 21
461.130275
  0
LINE
  8
OBRYS
 10
1495.527889
 20
461.130275
 11
1495.645382
 21
461.806068
  0
LINE
  8
OBRYS
 10
1495.645382
 20
461.806068
 11
1495.322958
 21
462.419765
  0
LINE
  8
OBRYS
 10
1495.322958
 20
462.419765
 11
1494.877707
 21
463.006195
  0
LINE
  8
OBRYS
 10
1494.877707
 20
463.006195
 11
1494.422638
 21
463.584373
  0
LINE
  8
OBRYS
 10
1494.422638
 20
463.584373
 11
1493.957754
 21
464.153881
  0
LINE
  8
OBRYS
 10
1493.957754
 20
464.153881
 11
1493.064878
 21
465.190501
  0
LINE
  8
OBRYS
 10
1493.064878
 20
465.190501
 11
1492.946361
 21
465.322634
  0
LINE
  8
OBRYS
 10
1492.946361
 20
465.322634
 11
1492.827474
 21
465.453927
  0
LINE
  8
OBRYS
 10
1492.827474
 20
465.453927
 11
1492.708219
 21
465.584379
  0
LINE
  8
OBRYS
 10
1492.708219
 20
465.584379
 11
1492.588595
 21
465.713988
  0
LINE
  8
OBRYS
 10
1492.588595
 20
465.713988
 11
1492.468602
 21
465.842754
  0
LINE
  8
OBRYS
 10
1492.468602
 20
465.842754
 11
1492.348239
 21
465.970676
  0
LINE
  8
OBRYS
 10
1492.348239
 20
465.970676
 11
1492.185671
 21
466.143550
  0
LINE
  8
OBRYS
 10
1492.185671
 20
466.143550
 11
1492.067380
 21
466.272223
  0
LINE
  8
OBRYS
 10
1492.067380
 20
466.272223
 11
1491.993368
 21
466.357619
  0
LINE
  8
OBRYS
 10
1491.993368
 20
466.357619
 11
1491.963633
 21
466.400358
  0
LINE
  8
OBRYS
 10
1491.963633
 20
466.400358
 11
1491.966746
 21
466.523004
  0
LINE
  8
OBRYS
 10
1491.966746
 20
466.523004
 11
1492.050612
 21
466.679056
  0
LINE
  8
OBRYS
 10
1492.050612
 20
466.679056
 11
1492.215233
 21
466.867571
  0
LINE
  8
OBRYS
 10
1492.215233
 20
466.867571
 11
1492.363191
 21
467.021883
  0
LINE
  8
OBRYS
 10
1492.363191
 20
467.021883
 11
1492.470550
 21
467.149777
  0
LINE
  8
OBRYS
 10
1492.470550
 20
467.149777
 11
1492.537311
 21
467.251853
  0
LINE
  8
OBRYS
 10
1492.537311
 20
467.251853
 11
1492.563472
 21
467.328593
  0
LINE
  8
OBRYS
 10
1492.563472
 20
467.328593
 11
1492.417979
 21
467.543504
  0
LINE
  8
OBRYS
 10
1492.417979
 20
467.543504
 11
1491.937447
 21
467.707100
  0
LINE
  8
OBRYS
 10
1495.624994
 20
435.080472
 11
1496.578463
 21
435.080472
  0
LINE
  8
OBRYS
 10
1270.578463
 20
475.080472
 11
1270.578463
 21
435.080472
  0
LINE
  8
OBRYS
 10
1270.578463
 20
475.080472
 11
1491.578463
 21
475.080472
  0
LINE
  8
OBRYS
 10
1421.078463
 20
125.377583
 11
1420.377673
 21
125.393666
  0
LINE
  8
OBRYS
 10
1420.377673
 20
125.393666
 11
1418.861226
 21
125.446272
  0
LINE
  8
OBRYS
 10
1418.861226
 20
125.446272
 11
1417.707972
 21
125.509654
  0
LINE
  8
OBRYS
 10
1417.707972
 20
125.509654
 11
1416.945546
 21
125.583102
  0
LINE
  8
OBRYS
 10
1416.945546
 20
125.583102
 11
1416.601047
 21
125.665684
  0
LINE
  8
OBRYS
 10
1416.601047
 20
125.665684
 11
1416.678632
 21
125.755269
  0
LINE
  8
OBRYS
 10
1416.678632
 20
125.755269
 11
1417.182326
 21
125.849435
  0
LINE
  8
OBRYS
 10
1417.182326
 20
125.849435
 11
1418.092066
 21
125.944727
  0
LINE
  8
OBRYS
 10
1418.092066
 20
125.944727
 11
1419.388178
 21
126.037456
  0
LINE
  8
OBRYS
 10
1419.388178
 20
126.037456
 11
1421.028576
 21
126.123572
  0
LINE
  8
OBRYS
 10
1421.028576
 20
126.123572
 11
1422.970820
 21
126.198921
  0
LINE
  8
OBRYS
 10
1422.970820
 20
126.198921
 11
1425.156378
 21
126.259995
  0
LINE
  8
OBRYS
 10
1425.156378
 20
126.259995
 11
1427.523890
 21
126.303361
  0
LINE
  8
OBRYS
 10
1427.523890
 20
126.303361
 11
1430.005955
 21
126.327120
  0
LINE
  8
OBRYS
 10
1430.005955
 20
126.327120
 11
1432.530425
 21
126.329643
  0
LINE
  8
OBRYS
 10
1432.530425
 20
126.329643
 11
1435.028046
 21
126.311208
  0
LINE
  8
OBRYS
 10
1435.028046
 20
126.311208
 11
1437.426186
 21
126.272454
  0
LINE
  8
OBRYS
 10
1437.426186
 20
126.272454
 11
1439.659648
 21
126.215760
  0
LINE
  8
OBRYS
 10
1439.659648
 20
126.215760
 11
1441.663678
 21
126.143720
  0
LINE
  8
OBRYS
 10
1441.663678
 20
126.143720
 11
1443.383758
 21
126.060157
  0
LINE
  8
OBRYS
 10
1443.383758
 20
126.060157
 11
1444.768341
 21
125.968793
  0
LINE
  8
OBRYS
 10
1444.768341
 20
125.968793
 11
1445.781153
 21
125.873814
  0
LINE
  8
OBRYS
 10
1445.781153
 20
125.873814
 11
1446.388417
 21
125.779042
  0
LINE
  8
OBRYS
 10
1446.388417
 20
125.779042
 11
1446.577702
 21
125.687881
  0
LINE
  8
OBRYS
 10
1446.577702
 20
125.687881
 11
1446.337615
 21
125.603308
  0
LINE
  8
OBRYS
 10
1446.337615
 20
125.603308
 11
1445.680768
 21
125.527240
  0
LINE
  8
OBRYS
 10
1445.680768
 20
125.527240
 11
1444.620570
 21
125.461271
  0
LINE
  8
OBRYS
 10
1444.620570
 20
125.461271
 11
1443.192223
 21
125.405824
  0
LINE
  8
OBRYS
 10
1443.192223
 20
125.405824
 11
1442.078463
 21
125.377577
  0
LINE
  8
OBRYS
 10
1495.624994
 20
165.080472
 11
1496.578463
 21
165.080472
  0
LINE
  8
OBRYS
 10
1491.937447
 20
132.453845
 11
1492.417859
 21
132.617414
  0
LINE
  8
OBRYS
 10
1492.417859
 20
132.617414
 11
1492.558916
 21
132.856482
  0
LINE
  8
OBRYS
 10
1492.558916
 20
132.856482
 11
1492.399261
 21
133.098433
  0
LINE
  8
OBRYS
 10
1492.399261
 20
133.098433
 11
1492.078261
 21
133.445246
  0
LINE
  8
OBRYS
 10
1492.078261
 20
133.445246
 11
1491.955086
 21
133.710261
  0
LINE
  8
OBRYS
 10
1491.955086
 20
133.710261
 11
1491.987729
 21
133.796298
  0
LINE
  8
OBRYS
 10
1491.987729
 20
133.796298
 11
1492.105358
 21
133.930560
  0
LINE
  8
OBRYS
 10
1492.105358
 20
133.930560
 11
1492.319815
 21
134.160186
  0
LINE
  8
OBRYS
 10
1492.319815
 20
134.160186
 11
1492.483757
 21
134.334385
  0
LINE
  8
OBRYS
 10
1492.483757
 20
134.334385
 11
1492.634804
 21
134.496875
  0
LINE
  8
OBRYS
 10
1492.634804
 20
134.496875
 11
1493.957754
 21
136.007064
  0
LINE
  8
OBRYS
 10
1493.957754
 20
136.007064
 11
1494.353618
 21
136.490726
  0
LINE
  8
OBRYS
 10
1494.353618
 20
136.490726
 11
1494.744410
 21
136.983323
  0
LINE
  8
OBRYS
 10
1494.744410
 20
136.983323
 11
1495.130129
 21
137.484756
  0
LINE
  8
OBRYS
 10
1495.130129
 20
137.484756
 11
1495.510775
 21
137.994929
  0
LINE
  8
OBRYS
 10
1495.510775
 20
137.994929
 11
1495.630396
 21
138.334159
  0
LINE
  8
OBRYS
 10
1495.630396
 20
138.334159
 11
1495.593935
 21
138.738390
  0
LINE
  8
OBRYS
 10
1495.593935
 20
138.738390
 11
1495.517441
 21
139.128836
  0
LINE
  8
OBRYS
 10
1495.517441
 20
139.128836
 11
1495.676488
 21
139.700242
  0
LINE
  8
OBRYS
 10
1495.676488
 20
139.700242
 11
1496.016841
 21
139.967593
  0
LINE
  8
OBRYS
 10
1496.016841
 20
139.967593
 11
1496.578463
 21
140.200049
  0
LINE
  8
OBRYS
 10
1491.578463
 20
130.143668
 11
1491.608732
 21
130.428256
  0
LINE
  8
OBRYS
 10
1491.608732
 20
130.428256
 11
1491.699525
 21
130.691159
  0
LINE
  8
OBRYS
 10
1491.699525
 20
130.691159
 11
1491.850843
 21
130.930288
  0
LINE
  8
OBRYS
 10
1491.850843
 20
130.930288
 11
1492.062686
 21
131.143787
  0
LINE
  8
OBRYS
 10
1492.062686
 20
131.143787
 11
1492.242417
 21
131.277848
  0
LINE
  8
OBRYS
 10
1492.242417
 20
131.277848
 11
1492.426318
 21
131.415505
  0
LINE
  8
OBRYS
 10
1492.426318
 20
131.415505
 11
1492.350749
 21
131.547125
  0
LINE
  8
OBRYS
 10
1492.350749
 20
131.547125
 11
1492.034414
 21
131.740447
  0
LINE
  8
OBRYS
 10
1492.034414
 20
131.740447
 11
1491.754144
 21
131.894013
  0
LINE
  8
OBRYS
 10
1491.754144
 20
131.894013
 11
1491.565268
 21
132.018192
  0
LINE
  8
OBRYS
 10
1491.565268
 20
132.018192
 11
1491.467785
 21
132.112146
  0
LINE
  8
OBRYS
 10
1491.467785
 20
132.112146
 11
1491.515823
 21
132.303159
  0
LINE
  8
OBRYS
 10
1491.515823
 20
132.303159
 11
1491.937447
 21
132.453845
  0
LINE
  8
OBRYS
 10
1491.578463
 20
125.080472
 11
1491.578463
 21
130.143668
  0
LINE
  8
OBRYS
 10
1270.578463
 20
125.080472
 11
1421.078463
 21
125.080472
  0
LINE
  8
OBRYS
 10
1442.078463
 20
125.080472
 11
1491.578463
 21
125.080472
  0
LINE
  8
OBRYS
 10
1270.578463
 20
165.080472
 11
1270.578463
 21
125.080472
  0
LINE
  8
OBRYS
 10
1265.578463
 20
433.080472
 11
1265.578463
 21
470.080472
  0
ARC
  8
OBRYS
 10
1270.578463
 20
470.080472
 40
5.000000
 50
90.000000
 51
180.000000
  0
LINE
  8
OBRYS
 10
1531.578463
 20
317.867551
 11
1531.578463
 21
312.886577
  0
LINE
  8
OBRYS
 10
1531.578463
 20
317.867551
 11
1561.578463
 21
317.867551
  0
LINE
  8
OBRYS
 10
1561.578463
 20
317.867551
 11
1561.578463
 21
312.886577
  0
ARC
  8
OBRYS
 10
1531.568968
 20
322.858055
 40
4.990514
 50
180.109430
 51
270.109013
  0
LINE
  8
OBRYS
 10
1531.578463
 20
287.274367
 11
1531.578463
 21
282.293394
  0
ARC
  8
OBRYS
 10
1531.568968
 20
277.302889
 40
4.990514
 50
89.890987
 51
179.890570
  0
LINE
  8
OBRYS
 10
1531.578463
 20
282.293394
 11
1561.578463
 21
282.293394
  0
LINE
  8
OBRYS
 10
1561.578463
 20
287.274367
 11
1561.578463
 21
282.293394
  0
ARC
  8
OBRYS
 10
1270.578463
 20
130.080472
 40
5.000000
 50
180.000000
 51
270.000000
  0
LINE
  8
OBRYS
 10
1265.578463
 20
130.080472
 11
1265.578463
 21
167.080472
  0
ARC
  8
OBRYS
 10
1531.568968
 20
324.974280
 40
4.990514
 50
180.109430
 51
270.109013
  0
LINE
  8
OBRYS
 10
1531.578463
 20
319.983775
 11
1531.578463
 21
317.867551
  0
LINE
  8
OBRYS
 10
1531.578463
 20
282.293394
 11
1531.578463
 21
280.177169
  0
ARC
  8
OBRYS
 10
1531.568968
 20
275.186664
 40
4.990514
 50
89.890987
 51
179.890570
  0
LINE
  8
OBRYS
 10
1531.578463
 20
319.983775
 11
1561.578463
 21
319.983775
  0
LINE
  8
OBRYS
 10
1561.578463
 20
319.983775
 11
1561.578463
 21
317.867551
  0
LINE
  8
OBRYS
 10
1531.578463
 20
280.177169
 11
1561.578463
 21
280.177169
  0
LINE
  8
OBRYS
 10
1561.578463
 20
282.293394
 11
1561.578463
 21
280.177169
  0
LINE
  8
OBRYS
 10
1241.578463
 20
339.915901
 11
1241.578463
 21
355.915900
  0
LINE
  8
OBRYS
 10
1241.578463
 20
244.245043
 11
1241.578463
 21
260.245042
  0
LINE
  8
OBRYS
 10
1526.578463
 20
367.038142
 11
1526.674536
 21
366.350627
  0
LINE
  8
OBRYS
 10
1526.674536
 20
366.350627
 11
1526.959065
 21
365.689532
  0
LINE
  8
OBRYS
 10
1526.959065
 20
365.689532
 11
1527.421115
 21
365.080264
  0
LINE
  8
OBRYS
 10
1527.421115
 20
365.080264
 11
1528.042929
 21
364.546236
  0
LINE
  8
OBRYS
 10
1528.042929
 20
364.546236
 11
1528.800611
 21
364.107970
  0
LINE
  8
OBRYS
 10
1528.800611
 20
364.107970
 11
1529.665046
 21
363.782310
  0
LINE
  8
OBRYS
 10
1529.665046
 20
363.782310
 11
1530.603011
 21
363.581769
  0
LINE
  8
OBRYS
 10
1530.603011
 20
363.581769
 11
1531.578463
 21
363.514055
  0
LINE
  8
OBRYS
 10
1531.578463
 20
363.514055
 11
1531.578463
 21
323.655050
  0
LINE
  8
OBRYS
 10
1526.578463
 20
324.964748
 11
1526.674536
 21
324.709239
  0
LINE
  8
OBRYS
 10
1526.674536
 20
324.709239
 11
1526.959065
 21
324.463548
  0
LINE
  8
OBRYS
 10
1526.959065
 20
324.463548
 11
1527.421115
 21
324.237119
  0
LINE
  8
OBRYS
 10
1527.421115
 20
324.237119
 11
1528.042929
 21
324.038652
  0
LINE
  8
OBRYS
 10
1528.042929
 20
324.038652
 11
1528.800611
 21
323.875774
  0
LINE
  8
OBRYS
 10
1528.800611
 20
323.875774
 11
1529.665046
 21
323.754745
  0
LINE
  8
OBRYS
 10
1529.665046
 20
323.754745
 11
1530.603011
 21
323.680215
  0
LINE
  8
OBRYS
 10
1530.603011
 20
323.680215
 11
1531.578463
 21
323.655050
  0
LINE
  8
OBRYS
 10
1531.578463
 20
323.655050
 11
1531.578463
 21
319.983775
  0
LINE
  8
OBRYS
 10
1531.578463
 20
280.177169
 11
1531.578463
 21
276.505894
  0
LINE
  8
OBRYS
 10
1526.578463
 20
275.196196
 11
1526.674536
 21
275.451705
  0
LINE
  8
OBRYS
 10
1526.674536
 20
275.451705
 11
1526.959065
 21
275.697396
  0
LINE
  8
OBRYS
 10
1526.959065
 20
275.697396
 11
1527.421115
 21
275.923825
  0
LINE
  8
OBRYS
 10
1527.421115
 20
275.923825
 11
1528.042929
 21
276.122293
  0
LINE
  8
OBRYS
 10
1528.042929
 20
276.122293
 11
1528.800611
 21
276.285170
  0
LINE
  8
OBRYS
 10
1528.800611
 20
276.285170
 11
1529.665046
 21
276.406200
  0
LINE
  8
OBRYS
 10
1529.665046
 20
276.406200
 11
1530.603011
 21
276.480729
  0
LINE
  8
OBRYS
 10
1530.603011
 20
276.480729
 11
1531.578463
 21
276.505894
  0
LINE
  8
OBRYS
 10
1531.578463
 20
276.505894
 11
1531.578463
 21
236.646890
  0
LINE
  8
OBRYS
 10
1526.578463
 20
233.122802
 11
1526.674536
 21
233.810317
  0
LINE
  8
OBRYS
 10
1526.674536
 20
233.810317
 11
1526.959065
 21
234.471412
  0
LINE
  8
OBRYS
 10
1526.959065
 20
234.471412
 11
1527.421115
 21
235.080680
  0
LINE
  8
OBRYS
 10
1527.421115
 20
235.080680
 11
1528.042929
 21
235.614708
  0
LINE
  8
OBRYS
 10
1528.042929
 20
235.614708
 11
1528.800611
 21
236.052974
  0
LINE
  8
OBRYS
 10
1528.800611
 20
236.052974
 11
1529.665046
 21
236.378634
  0
LINE
  8
OBRYS
 10
1529.665046
 20
236.378634
 11
1530.603011
 21
236.579175
  0
LINE
  8
OBRYS
 10
1530.603011
 20
236.579175
 11
1531.578463
 21
236.646890
  0
LINE
  8
OBRYS
 10
1531.578463
 20
323.655050
 11
1561.578463
 21
323.655050
  0
LINE
  8
OBRYS
 10
1561.578463
 20
323.655050
 11
1561.578463
 21
319.983775
  0
LINE
  8
OBRYS
 10
1531.578463
 20
276.505894
 11
1561.578463
 21
276.505894
  0
LINE
  8
OBRYS
 10
1561.578463
 20
280.177169
 11
1561.578463
 21
276.505894
  0
LINE
  8
OBRYS
 10
1247.578463
 20
289.882554
 11
1248.578463
 21
290.330556
  0
LINE
  8
OBRYS
 10
1247.578463
 20
310.278390
 11
1247.578463
 21
289.882554
  0
LINE
  8
OBRYS
 10
1248.578463
 20
309.830388
 11
1247.578463
 21
310.278390
  0
LINE
  8
OBRYS
 10
1248.578463
 20
218.263118
 11
1247.578463
 21
219.028390
  0
LINE
  8
OBRYS
 10
1247.578463
 20
219.028390
 11
1186.578463
 21
219.028390
  0
LINE
  8
OBRYS
 10
1186.578463
 20
289.882554
 11
1247.578463
 21
289.882554
  0
LINE
  8
OBRYS
 10
1247.578463
 20
310.278390
 11
1186.578463
 21
310.278390
  0
LINE
  8
OBRYS
 10
1186.578463
 20
381.132554
 11
1247.578463
 21
381.132554
  0
LINE
  8
OBRYS
 10
1247.578463
 20
381.132554
 11
1248.578463
 21
381.897826
  0
LINE
  8
OBRYS
 10
1186.578463
 20
310.278390
 11
1186.578463
 21
289.882554
  0
LINE
  8
OBRYS
 10
1531.578463
 20
363.514055
 11
1561.578463
 21
363.514055
  0
LINE
  8
OBRYS
 10
1561.578463
 20
363.514055
 11
1561.578463
 21
323.655050
  0
LINE
  8
OBRYS
 10
1531.578463
 20
236.646890
 11
1561.578463
 21
236.646890
  0
LINE
  8
OBRYS
 10
1561.578463
 20
276.505894
 11
1561.578463
 21
236.646890
  0
LINE
  8
OBRYS
 10
1565.078463
 20
380.080472
 11
1565.078463
 21
220.080472
  0
ARC
  8
OBRYS
 10
1531.137754
 20
401.207204
 40
4.592072
 50
186.850204
 51
275.507249
  0
LINE
  8
OBRYS
 10
1531.578463
 20
396.636329
 11
1531.578463
 21
390.500077
  0
LINE
  8
OBRYS
 10
1526.578463
 20
388.386985
 11
1526.674536
 21
388.799229
  0
LINE
  8
OBRYS
 10
1526.674536
 20
388.799229
 11
1526.959065
 21
389.195630
  0
LINE
  8
OBRYS
 10
1526.959065
 20
389.195630
 11
1527.421115
 21
389.560956
  0
LINE
  8
OBRYS
 10
1527.421115
 20
389.560956
 11
1528.042929
 21
389.881167
  0
LINE
  8
OBRYS
 10
1528.042929
 20
389.881167
 11
1528.800611
 21
390.143957
  0
LINE
  8
OBRYS
 10
1528.800611
 20
390.143957
 11
1529.665046
 21
390.339227
  0
LINE
  8
OBRYS
 10
1529.665046
 20
390.339227
 11
1530.603011
 21
390.459474
  0
LINE
  8
OBRYS
 10
1530.603011
 20
390.459474
 11
1531.578463
 21
390.500077
  0
LINE
  8
OBRYS
 10
1526.578463
 20
211.773959
 11
1526.674536
 21
211.361715
  0
LINE
  8
OBRYS
 10
1526.674536
 20
211.361715
 11
1526.959065
 21
210.965314
  0
LINE
  8
OBRYS
 10
1526.959065
 20
210.965314
 11
1527.421115
 21
210.599988
  0
LINE
  8
OBRYS
 10
1527.421115
 20
210.599988
 11
1528.042929
 21
210.279778
  0
LINE
  8
OBRYS
 10
1528.042929
 20
210.279778
 11
1528.800611
 21
210.016988
  0
LINE
  8
OBRYS
 10
1528.800611
 20
210.016988
 11
1529.665046
 21
209.821717
  0
LINE
  8
OBRYS
 10
1529.665046
 20
209.821717
 11
1530.603011
 21
209.701470
  0
LINE
  8
OBRYS
 10
1530.603011
 20
209.701470
 11
1531.578463
 21
209.660868
  0
LINE
  8
OBRYS
 10
1531.578463
 20
209.660868
 11
1531.578463
 21
203.524616
  0
ARC
  8
OBRYS
 10
1531.137754
 20
198.953740
 40
4.592072
 50
84.492751
 51
173.149796
  0
LINE
  8
OBRYS
 10
1531.578463
 20
390.500077
 11
1531.578463
 21
369.151234
  0
LINE
  8
OBRYS
 10
1526.578463
 20
367.038142
 11
1526.674536
 21
367.450386
  0
LINE
  8
OBRYS
 10
1526.674536
 20
367.450386
 11
1526.959065
 21
367.846787
  0
LINE
  8
OBRYS
 10
1526.959065
 20
367.846787
 11
1527.421115
 21
368.212113
  0
LINE
  8
OBRYS
 10
1527.421115
 20
368.212113
 11
1528.042929
 21
368.532324
  0
LINE
  8
OBRYS
 10
1528.042929
 20
368.532324
 11
1528.800611
 21
368.795114
  0
LINE
  8
OBRYS
 10
1528.800611
 20
368.795114
 11
1529.665046
 21
368.990384
  0
LINE
  8
OBRYS
 10
1529.665046
 20
368.990384
 11
1530.603011
 21
369.110631
  0
LINE
  8
OBRYS
 10
1530.603011
 20
369.110631
 11
1531.578463
 21
369.151234
  0
LINE
  8
OBRYS
 10
1526.578463
 20
233.122802
 11
1526.674536
 21
232.710558
  0
LINE
  8
OBRYS
 10
1526.674536
 20
232.710558
 11
1526.959065
 21
232.314157
  0
LINE
  8
OBRYS
 10
1526.959065
 20
232.314157
 11
1527.421115
 21
231.948831
  0
LINE
  8
OBRYS
 10
1527.421115
 20
231.948831
 11
1528.042929
 21
231.628621
  0
LINE
  8
OBRYS
 10
1528.042929
 20
231.628621
 11
1528.800611
 21
231.365831
  0
LINE
  8
OBRYS
 10
1528.800611
 20
231.365831
 11
1529.665046
 21
231.170560
  0
LINE
  8
OBRYS
 10
1529.665046
 20
231.170560
 11
1530.603011
 21
231.050313
  0
LINE
  8
OBRYS
 10
1530.603011
 20
231.050313
 11
1531.578463
 21
231.009710
  0
LINE
  8
OBRYS
 10
1531.578463
 20
231.009710
 11
1531.578463
 21
209.660868
  0
ARC
  8
OBRYS
 10
1531.378518
 20
414.866014
 40
4.805010
 50
182.602180
 51
272.384869
  0
LINE
  8
OBRYS
 10
1531.578463
 20
410.065166
 11
1531.578463
 21
396.636329
  0
LINE
  8
OBRYS
 10
1531.578463
 20
203.524616
 11
1531.578463
 21
190.095778
  0
ARC
  8
OBRYS
 10
1531.378518
 20
185.294930
 40
4.805010
 50
87.615131
 51
177.397820
  0
LINE
  8
OBRYS
 10
1531.578463
 20
390.500077
 11
1561.578463
 21
390.500077
  0
LINE
  8
OBRYS
 10
1531.578463
 20
396.636329
 11
1561.578463
 21
396.636329
  0
LINE
  8
OBRYS
 10
1561.578463
 20
396.636329
 11
1561.578463
 21
390.500077
  0
LINE
  8
OBRYS
 10
1531.578463
 20
203.524616
 11
1561.578463
 21
203.524616
  0
LINE
  8
OBRYS
 10
1531.578463
 20
209.660868
 11
1561.578463
 21
209.660868
  0
LINE
  8
OBRYS
 10
1561.578463
 20
209.660868
 11
1561.578463
 21
203.524616
  0
LINE
  8
OBRYS
 10
1531.578463
 20
369.151234
 11
1561.578463
 21
369.151234
  0
LINE
  8
OBRYS
 10
1561.578463
 20
390.500077
 11
1561.578463
 21
369.151234
  0
LINE
  8
OBRYS
 10
1531.578463
 20
231.009710
 11
1561.578463
 21
231.009710
  0
LINE
  8
OBRYS
 10
1561.578463
 20
231.009710
 11
1561.578463
 21
209.660868
  0
LINE
  8
OBRYS
 10
1531.578463
 20
410.065166
 11
1561.578463
 21
410.065166
  0
LINE
  8
OBRYS
 10
1561.578463
 20
410.065166
 11
1561.578463
 21
396.636329
  0
LINE
  8
OBRYS
 10
1531.578463
 20
190.095778
 11
1561.578463
 21
190.095778
  0
LINE
  8
OBRYS
 10
1561.578463
 20
203.524616
 11
1561.578463
 21
190.095778
  0
LINE
  8
OBRYS
 10
1531.578463
 20
369.151234
 11
1531.578463
 21
363.514055
  0
LINE
  8
OBRYS
 10
1531.578463
 20
236.646890
 11
1531.578463
 21
231.009710
  0
LINE
  8
OBRYS
 10
1561.578463
 20
369.151234
 11
1561.578463
 21
363.514055
  0
LINE
  8
OBRYS
 10
1561.578463
 20
236.646890
 11
1561.578463
 21
231.009710
  0
LINE
  8
OBRYS
 10
1247.578463
 20
391.330472
 11
1186.578463
 21
391.330472
  0
LINE
  8
OBRYS
 10
1247.578463
 20
391.330472
 11
1247.578463
 21
381.132554
  0
LINE
  8
OBRYS
 10
1186.578463
 20
391.330472
 11
1186.578463
 21
381.132554
  0
LINE
  8
OBRYS
 10
1248.578463
 20
391.647742
 11
1247.578463
 21
391.330472
  0
LINE
  8
OBRYS
 10
1247.578463
 20
219.028390
 11
1247.578463
 21
208.830472
  0
LINE
  8
OBRYS
 10
1186.578463
 20
208.830472
 11
1247.578463
 21
208.830472
  0
LINE
  8
OBRYS
 10
1186.578463
 20
219.028390
 11
1186.578463
 21
208.830472
  0
LINE
  8
OBRYS
 10
1247.578463
 20
208.830472
 11
1248.578463
 21
208.513203
  0
LINE
  8
OBRYS
 10
1561.578463
 20
410.482470
 11
1561.578463
 21
410.065166
  0
LINE
  8
OBRYS
 10
1561.578463
 20
190.095778
 11
1561.578463
 21
189.678474
  0
LINE
  8
OBRYS
 10
1241.578463
 20
176.599380
 11
1241.578463
 21
192.599379
  0
LINE
  8
OBRYS
 10
1241.578463
 20
407.569262
 11
1241.578463
 21
423.569261
  0
LINE
  8
OBRYS
 10
1567.078463
 20
260.080472
 11
1567.078463
 21
340.080472
  0
LINE
  8
OBRYS
 10
1569.078463
 20
260.808413
 11
1569.078463
 21
339.352532
  0
LINE
  8
OBRYS
 10
1675.078463
 20
309.080472
 11
1583.078463
 21
309.080472
  0
ARC
  8
OBRYS
 10
1675.078463
 20
300.080472
 40
9.000000
 50
270.000000
 51
90.000000
  0
LINE
  8
OBRYS
 10
1583.078463
 20
291.080472
 11
1675.078463
 21
291.080472
  0
ARC
  8
OBRYS
 10
1583.078463
 20
300.080472
 40
9.000000
 50
90.000000
 51
270.000000
  0
LINE
  8
OBRYS
 10
1688.078463
 20
270.080472
 11
1688.078463
 21
330.080472
  0
LINE
  8
OBRYS
 10
1689.078463
 20
271.080472
 11
1689.078463
 21
329.080472
  0
LINE
  8
OBRYS
 10
1493.902716
 20
132.608404
 11
1494.625874
 21
132.804662
  0
LINE
  8
OBRYS
 10
1241.578463
 20
176.591682
 11
1241.578463
 21
176.599380
  0
LINE
  8
OBRYS
 10
1241.578463
 20
407.561565
 11
1241.578463
 21
407.569262
  0
ARC
  8
OBRYS
 10
1491.578463
 20
470.080472
 40
5.000000
 50
0.000000
 51
90.000000
  0
LINE
  8
OBRYS
 10
1496.578463
 20
470.080472
 11
1496.578463
 21
466.066062
  0
LINE
  8
OBRYS
 10
1496.578463
 20
134.183730
 11
1496.578463
 21
130.080472
  0
ARC
  8
OBRYS
 10
1491.578463
 20
130.080472
 40
5.000000
 50
270.000000
 51
360.000000
  0
LINE
  8
OBRYS
 10
1444.078463
 20
125.580472
 11
1419.078463
 21
125.580472
  0
LINE
  8
OBRYS
 10
1441.078463
 20
122.580472
 11
1422.078464
 21
122.580472
  0
LINE
  8
OBRYS
 10
1494.247649
 20
475.080472
 11
1494.652582
 21
474.938401
  0
LINE
  8
OBRYS
 10
1494.652582
 20
474.938401
 11
1496.804518
 21
473.998358
  0
LINE
  8
OBRYS
 10
1496.804518
 20
473.998358
 11
1499.555986
 21
472.130126
  0
LINE
  8
OBRYS
 10
1499.555986
 20
472.130126
 11
1500.916542
 21
470.511921
  0
LINE
  8
OBRYS
 10
1500.916542
 20
470.511921
 11
1501.388947
 21
469.373189
  0
LINE
  8
OBRYS
 10
1501.388947
 20
469.373189
 11
1500.440899
 21
469.391242
  0
LINE
  8
OBRYS
 10
1500.440899
 20
469.391242
 11
1499.534488
 21
469.434523
  0
LINE
  8
OBRYS
 10
1499.534488
 20
469.434523
 11
1498.702891
 21
469.501447
  0
LINE
  8
OBRYS
 10
1498.702891
 20
469.501447
 11
1497.976548
 21
469.589565
  0
LINE
  8
OBRYS
 10
1497.976548
 20
469.589565
 11
1497.382043
 21
469.695651
  0
LINE
  8
OBRYS
 10
1497.382043
 20
469.695651
 11
1496.941137
 21
469.815822
  0
LINE
  8
OBRYS
 10
1496.941137
 20
469.815822
 11
1496.669969
 21
469.945680
  0
LINE
  8
OBRYS
 10
1496.669969
 20
469.945680
 11
1496.578463
 21
470.080472
  0
LINE
  8
OBRYS
 10
1491.578463
 20
475.080472
 11
1494.247649
 21
475.080472
  0
LINE
  8
OBRYS
 10
1267.909276
 20
125.080472
 11
1267.504344
 21
125.222543
  0
LINE
  8
OBRYS
 10
1267.504344
 20
125.222543
 11
1265.352407
 21
126.162586
  0
LINE
  8
OBRYS
 10
1265.352407
 20
126.162586
 11
1262.600939
 21
128.030819
  0
LINE
  8
OBRYS
 10
1262.600939
 20
128.030819
 11
1261.240384
 21
129.649023
  0
LINE
  8
OBRYS
 10
1261.240384
 20
129.649023
 11
1260.767979
 21
130.787755
  0
LINE
  8
OBRYS
 10
1265.578463
 20
130.080472
 11
1265.486957
 21
130.215264
  0
LINE
  8
OBRYS
 10
1265.486957
 20
130.215264
 11
1265.215788
 21
130.345122
  0
LINE
  8
OBRYS
 10
1265.215788
 20
130.345122
 11
1264.774882
 21
130.465294
  0
LINE
  8
OBRYS
 10
1264.774882
 20
130.465294
 11
1264.180377
 21
130.571380
  0
LINE
  8
OBRYS
 10
1264.180377
 20
130.571380
 11
1263.454034
 21
130.659497
  0
LINE
  8
OBRYS
 10
1263.454034
 20
130.659497
 11
1262.622438
 21
130.726421
  0
LINE
  8
OBRYS
 10
1262.622438
 20
130.726421
 11
1261.716027
 21
130.769702
  0
LINE
  8
OBRYS
 10
1261.716027
 20
130.769702
 11
1260.767979
 21
130.787755
  0
LINE
  8
OBRYS
 10
1270.578463
 20
125.080472
 11
1267.909276
 21
125.080472
  0
LINE
  8
OBRYS
 10
1265.578463
 20
470.080472
 11
1265.486957
 21
469.945680
  0
LINE
  8
OBRYS
 10
1265.486957
 20
469.945680
 11
1265.215788
 21
469.815822
  0
LINE
  8
OBRYS
 10
1265.215788
 20
469.815822
 11
1264.774882
 21
469.695651
  0
LINE
  8
OBRYS
 10
1264.774882
 20
469.695651
 11
1264.180377
 21
469.589565
  0
LINE
  8
OBRYS
 10
1264.180377
 20
469.589565
 11
1263.454034
 21
469.501447
  0
LINE
  8
OBRYS
 10
1263.454034
 20
469.501447
 11
1262.622438
 21
469.434523
  0
LINE
  8
OBRYS
 10
1262.622438
 20
469.434523
 11
1261.716027
 21
469.391242
  0
LINE
  8
OBRYS
 10
1261.716027
 20
469.391242
 11
1260.767979
 21
469.373189
  0
LINE
  8
OBRYS
 10
1260.767979
 20
469.373189
 11
1261.394667
 21
470.757589
  0
LINE
  8
OBRYS
 10
1261.394667
 20
470.757589
 11
1261.562582
 21
470.996850
  0
LINE
  8
OBRYS
 10
1261.562582
 20
470.996850
 11
1263.003746
 21
472.476960
  0
LINE
  8
OBRYS
 10
1263.003746
 20
472.476960
 11
1265.359238
 21
474.001902
  0
LINE
  8
OBRYS
 10
1265.359238
 20
474.001902
 11
1267.199430
 21
474.824703
  0
LINE
  8
OBRYS
 10
1267.199430
 20
474.824703
 11
1267.909276
 21
475.080472
  0
LINE
  8
OBRYS
 10
1267.909276
 20
475.080472
 11
1270.578463
 21
475.080472
  0
LINE
  8
OBRYS
 10
1496.578463
 20
130.080472
 11
1496.669969
 21
130.215264
  0
LINE
  8
OBRYS
 10
1496.669969
 20
130.215264
 11
1496.941137
 21
130.345122
  0
LINE
  8
OBRYS
 10
1496.941137
 20
130.345122
 11
1497.382043
 21
130.465294
  0
LINE
  8
OBRYS
 10
1497.382043
 20
130.465294
 11
1497.976548
 21
130.571380
  0
LINE
  8
OBRYS
 10
1497.976548
 20
130.571380
 11
1498.702891
 21
130.659497
  0
LINE
  8
OBRYS
 10
1498.702891
 20
130.659497
 11
1499.534488
 21
130.726421
  0
LINE
  8
OBRYS
 10
1499.534488
 20
130.726421
 11
1500.440899
 21
130.769702
  0
LINE
  8
OBRYS
 10
1500.440899
 20
130.769702
 11
1501.388947
 21
130.787755
  0
LINE
  8
OBRYS
 10
1501.388947
 20
130.787755
 11
1500.762258
 21
129.403355
  0
LINE
  8
OBRYS
 10
1500.762258
 20
129.403355
 11
1500.594343
 21
129.164095
  0
LINE
  8
OBRYS
 10
1500.594343
 20
129.164095
 11
1499.153179
 21
127.683984
  0
LINE
  8
OBRYS
 10
1499.153179
 20
127.683984
 11
1496.797687
 21
126.159043
  0
LINE
  8
OBRYS
 10
1496.797687
 20
126.159043
 11
1494.957496
 21
125.336241
  0
LINE
  8
OBRYS
 10
1494.957496
 20
125.336241
 11
1494.247649
 21
125.080472
  0
LINE
  8
OBRYS
 10
1494.247649
 20
125.080472
 11
1491.578463
 21
125.080472
  0
LINE
  8
OBRYS
 10
1501.388947
 20
469.373189
 11
1501.578463
 21
468.564345
  0
LINE
  8
OBRYS
 10
1501.578463
 20
468.564345
 11
1496.578463
 21
468.564345
  0
LINE
  8
OBRYS
 10
1265.578463
 20
468.564345
 11
1260.578463
 21
468.564345
  0
LINE
  8
OBRYS
 10
1260.578463
 20
468.564345
 11
1260.767979
 21
469.373189
  0
LINE
  8
OBRYS
 10
1496.578463
 20
131.596599
 11
1501.578463
 21
131.596599
  0
LINE
  8
OBRYS
 10
1265.578463
 20
131.596599
 11
1260.578463
 21
131.596599
  0
LINE
  8
OBRYS
 10
1501.578463
 20
131.596599
 11
1501.388947
 21
130.787755
  0
LINE
  8
OBRYS
 10
1260.767979
 20
130.787755
 11
1260.578463
 21
131.596599
  0
ARC
  8
OBRYS
 10
1495.920200
 20
470.080472
 40
5.000000
 50
75.000000
 51
90.000000
  0
LINE
  8
OBRYS
 10
1497.214295
 20
474.910101
 11
1552.872558
 21
459.996515
  0
LINE
  8
OBRYS
 10
1551.578463
 20
455.166886
 11
1552.872558
 21
459.996515
  0
LINE
  8
OBRYS
 10
1551.578463
 20
455.166886
 11
1501.578463
 21
468.564345
  0
LINE
  8
OBRYS
 10
1494.247649
 20
475.080472
 11
1495.920200
 21
475.080472
  0
ARC
  8
OBRYS
 10
1266.236725
 20
130.080472
 40
5.000000
 50
255.000000
 51
270.000000
  0
LINE
  8
OBRYS
 10
1264.942630
 20
125.250843
 11
1195.284367
 21
143.915718
  0
LINE
  8
OBRYS
 10
1195.284367
 20
143.915718
 11
1196.578463
 21
148.745347
  0
LINE
  8
OBRYS
 10
1196.578463
 20
148.745347
 11
1260.578463
 21
131.596599
  0
LINE
  8
OBRYS
 10
1267.909276
 20
125.080472
 11
1266.236725
 21
125.080472
  0
LINE
  8
OBRYS
 10
1260.578463
 20
468.564345
 11
1196.578463
 21
451.415597
  0
LINE
  8
OBRYS
 10
1196.578463
 20
451.415597
 11
1195.284367
 21
456.245226
  0
LINE
  8
OBRYS
 10
1195.284367
 20
456.245226
 11
1264.942630
 21
474.910101
  0
ARC
  8
OBRYS
 10
1266.236725
 20
470.080472
 40
5.000000
 50
90.000000
 51
105.000000
  0
LINE
  8
OBRYS
 10
1266.236725
 20
475.080472
 11
1267.909276
 21
475.080472
  0
LINE
  8
OBRYS
 10
1501.578463
 20
131.596599
 11
1551.578463
 21
144.994059
  0
LINE
  8
OBRYS
 10
1552.872558
 20
140.164429
 11
1551.578463
 21
144.994059
  0
LINE
  8
OBRYS
 10
1552.872558
 20
140.164429
 11
1497.214295
 21
125.250843
  0
ARC
  8
OBRYS
 10
1495.920200
 20
130.080472
 40
5.000000
 50
270.000000
 51
285.000000
  0
LINE
  8
OBRYS
 10
1495.920200
 20
125.080472
 11
1494.247649
 21
125.080472
  0
LINE
  8
OBRYS
 10
1196.578463
 20
451.415597
 11
1196.578463
 21
397.324167
  0
CIRCLE
  8
OBRYS
 10
1219.078463
 20
425.080472
 40
13.711727
  0
ARC
  8
OBRYS
 10
1551.578463
 20
455.166886
 40
5.000000
 50
0.000000
 51
75.000000
  0
LINE
  8
OBRYS
 10
1551.578463
 20
455.166886
 11
1556.578463
 21
455.166886
  0
LINE
  8
OBRYS
 10
1196.578463
 20
451.415597
 11
1191.578463
 21
451.415597
  0
ARC
  8
OBRYS
 10
1196.578463
 20
451.415597
 40
5.000000
 50
105.000000
 51
180.000000
  0
LINE
  8
OBRYS
 10
1556.578463
 20
455.166886
 11
1556.578463
 21
410.482470
  0
LINE
  8
OBRYS
 10
1196.578463
 20
397.324167
 11
1191.578463
 21
397.324167
  0
LINE
  8
OBRYS
 10
1191.578463
 20
397.324167
 11
1191.578463
 21
451.415597
  0
CIRCLE
  8
OBRYS
 10
1219.078463
 20
425.080472
 40
12.712336
  0
ARC
  8
OBRYS
 10
1196.578463
 20
397.324167
 40
5.000000
 50
180.000000
 51
260.000000
  0
LINE
  8
OBRYS
 10
1195.710222
 20
392.400128
 11
1196.578463
 21
397.324167
  0
LINE
  8
OBRYS
 10
1201.776542
 20
391.330472
 11
1195.710222
 21
392.400128
  0
CIRCLE
  8
OBRYS
 10
1219.078463
 20
175.080472
 40
13.711727
  0
LINE
  8
OBRYS
 10
1196.578463
 20
202.836777
 11
1196.578463
 21
148.745347
  0
LINE
  8
OBRYS
 10
1196.578463
 20
202.836777
 11
1195.710222
 21
207.760816
  0
LINE
  8
OBRYS
 10
1195.710222
 20
207.760816
 11
1201.776542
 21
208.830472
  0
ARC
  8
OBRYS
 10
1196.578463
 20
202.836777
 40
5.000000
 50
100.000000
 51
180.000000
  0
LINE
  8
OBRYS
 10
1191.578463
 20
202.836777
 11
1196.578463
 21
202.836777
  0
LINE
  8
OBRYS
 10
1556.578463
 20
189.678474
 11
1556.578463
 21
144.994059
  0
LINE
  8
OBRYS
 10
1556.578463
 20
144.994059
 11
1551.578463
 21
144.994059
  0
LINE
  8
OBRYS
 10
1191.578463
 20
148.745347
 11
1191.578463
 21
202.836777
  0
LINE
  8
OBRYS
 10
1191.578463
 20
148.745347
 11
1196.578463
 21
148.745347
  0
CIRCLE
  8
OBRYS
 10
1219.078463
 20
175.080472
 40
12.712336
  0
ARC
  8
OBRYS
 10
1196.578463
 20
148.745347
 40
5.000000
 50
180.000000
 51
255.000000
  0
ARC
  8
OBRYS
 10
1551.578463
 20
144.994059
 40
5.000000
 50
285.000000
 51
360.000000
  0
ARC
  8
OBRYS
 10
1219.078463
 20
425.080472
 40
11.909159
 50
204.674584
 51
155.325416
  0
ARC
  8
OBRYS
 10
1219.145136
 20
425.080472
 40
11.969777
 50
155.458648
 51
204.541352
  0
ARC
  8
OBRYS
 10
1529.011789
 20
425.080472
 40
11.969777
 50
335.458648
 51
24.541352
  0
ARC
  8
OBRYS
 10
1219.078463
 20
175.080472
 40
11.909159
 50
204.674584
 51
155.325416
  0
ARC
  8
OBRYS
 10
1219.145136
 20
175.080472
 40
11.969777
 50
155.458648
 51
204.541352
  0
ARC
  8
OBRYS
 10
1529.011789
 20
175.080472
 40
11.969777
 50
335.458648
 51
24.541352
  0
LINE
  8
OBRYS
 10
1284.078463
 20
477.580472
 11
1303.078462
 21
477.580472
  0
LINE
  8
OBRYS
 10
1156.578463
 20
150.080472
 11
1156.578463
 21
450.080472
  0
LINE
  8
OBRYS
 10
1174.578463
 20
152.640424
 11
1174.578463
 21
447.520521
  0
LINE
  8
OBRYS
 10
1186.578463
 20
200.080472
 11
1186.578463
 21
400.080472
  0
LINE
  8
OBRYS
 10
1347.578463
 20
289.240868
 11
1346.387225
 21
289.589065
  0
LINE
  8
OBRYS
 10
1346.387225
 20
289.589065
 11
1346.842046
 21
291.003933
  0
LINE
  8
OBRYS
 10
1346.842046
 20
291.003933
 11
1347.578463
 21
292.877491
  0
LINE
  8
OBRYS
 10
1347.578463
 20
307.206011
 11
1346.387225
 21
310.571879
  0
LINE
  8
OBRYS
 10
1347.578463
 20
310.920076
 11
1346.387225
 21
310.571879
  0
LINE
  8
OBRYS
 10
1360.769700
 20
310.571879
 11
1359.744234
 21
307.623241
  0
LINE
  8
OBRYS
 10
1359.744234
 20
307.623241
 11
1359.578463
 21
307.208540
  0
LINE
  8
OBRYS
 10
1359.578463
 20
292.955619
 11
1359.616586
 21
292.860582
  0
LINE
  8
OBRYS
 10
1359.616586
 20
292.860582
 11
1360.769700
 21
289.589065
  0
LINE
  8
OBRYS
 10
1360.769700
 20
289.589065
 11
1359.578463
 21
289.240868
  0
LINE
  8
OBRYS
 10
1360.769700
 20
310.571879
 11
1359.578463
 21
310.920076
  0
LINE
  8
OBRYS
 10
1250.508664
 20
439.728827
 11
1250.508664
 21
160.432117
  0
LINE
  8
OBRYS
 10
1242.578463
 20
356.915901
 11
1242.578463
 21
338.915901
  0
LINE
  8
OBRYS
 10
1242.578463
 20
261.245043
 11
1242.578463
 21
243.245043
  0
LINE
  8
OBRYS
 10
1531.578463
 20
410.482470
 11
1531.578463
 21
410.065166
  0
LINE
  8
OBRYS
 10
1531.578463
 20
190.095778
 11
1531.578463
 21
189.678474
  0
LINE
  8
OBRYS
 10
1242.578463
 20
193.599380
 11
1242.578463
 21
175.599380
  0
LINE
  8
OBRYS
 10
1242.578463
 20
424.569262
 11
1242.578463
 21
406.569262
  0
ARC
  8
OBRYS
 10
1498.888742
 20
438.564250
 40
21.521008
 50
72.553846
 51
96.162574
  0
ARC
  8
OBRYS
 10
1498.841532
 20
162.165710
 40
22.081932
 50
264.117708
 51
286.995426
  0
LINE
  8
OBRYS
 10
1491.937447
 20
467.707100
 11
1493.567030
 21
467.643643
  0
LINE
  8
OBRYS
 10
1493.567030
 20
467.643643
 11
1493.902978
 21
467.552469
  0
LINE
  8
OBRYS
 10
1491.937447
 20
132.453845
 11
1493.567030
 21
132.517301
  0
LINE
  8
OBRYS
 10
1493.567030
 20
132.517301
 11
1493.902716
 21
132.608404
  0
ARC
  8
OBRYS
 10
1491.683971
 20
465.255281
 40
4.763164
 50
8.590665
 51
91.269255
  0
ARC
  8
OBRYS
 10
1491.683667
 20
134.906400
 40
4.763895
 50
268.734595
 51
351.481273
  0
LINE
  8
OBRYS
 10
1242.578463
 20
175.599380
 11
1242.578463
 21
175.591682
  0
LINE
  8
OBRYS
 10
1242.578463
 20
406.569262
 11
1242.578463
 21
406.561565
  0
LINE
  8
OBRYS
 10
1421.078463
 20
123.580472
 11
1442.078463
 21
123.580472
  0
LINE
  8
OBRYS
 10
1501.578463
 20
468.564345
 11
1501.578463
 21
462.987219
  0
LINE
  8
OBRYS
 10
1260.578463
 20
440.080472
 11
1260.578463
 21
468.564345
  0
LINE
  8
OBRYS
 10
1501.578463
 20
137.213069
 11
1501.578463
 21
131.596599
  0
LINE
  8
OBRYS
 10
1260.578463
 20
131.596599
 11
1260.578463
 21
160.080472
  0
LINE
  8
OBRYS
 10
1551.578463
 20
410.482470
 11
1551.578463
 21
455.166886
  0
ARC
  8
OBRYS
 10
1529.078463
 20
425.080472
 40
13.711727
 50
268.543805
 51
270.000000
  0
ARC
  8
OBRYS
 10
1529.078463
 20
425.080472
 40
13.711727
 50
270.000000
 51
105.051858
  0
LINE
  8
OBRYS
 10
1196.578463
 20
397.324167
 11
1230.570395
 21
391.330472
  0
ARC
  8
OBRYS
 10
1529.078463
 20
425.080472
 40
12.712336
 50
263.319655
 51
105.108776
  0
LINE
  8
OBRYS
 10
1230.570395
 20
208.830472
 11
1196.578463
 21
202.836777
  0
LINE
  8
OBRYS
 10
1551.578463
 20
144.994059
 11
1551.578463
 21
189.678474
  0
ARC
  8
OBRYS
 10
1529.078463
 20
175.080472
 40
13.711727
 50
254.948142
 51
270.000000
  0
ARC
  8
OBRYS
 10
1529.078463
 20
175.080472
 40
13.711727
 50
270.000000
 51
91.456195
  0
ARC
  8
OBRYS
 10
1529.078463
 20
175.080472
 40
12.712336
 50
270.000000
 51
96.680345
  0
ARC
  8
OBRYS
 10
1529.078463
 20
175.080472
 40
12.712336
 50
254.891224
 51
270.000000
  0
ARC
  8
OBRYS
 10
1529.078463
 20
425.080472
 40
11.909159
 50
260.236769
 51
335.325416
  0
ARC
  8
OBRYS
 10
1529.078463
 20
425.080472
 40
11.909159
 50
24.674584
 51
105.277712
  0
ARC
  8
OBRYS
 10
1529.078463
 20
175.080472
 40
11.909159
 50
254.722288
 51
335.325416
  0
ARC
  8
OBRYS
 10
1529.078463
 20
175.080472
 40
11.909159
 50
24.674584
 51
99.763231
  0
LINE
  8
OBRYS
 10
1304.078463
 20
476.580472
 11
1283.078463
 21
476.580472
  0
LINE
  8
OBRYS
 10
1172.648262
 20
150.641642
 11
1172.648262
 21
449.519302
  0
LINE
  8
OBRYS
 10
1177.473764
 20
199.762529
 11
1177.473764
 21
400.398415
  0
ARC
  8
OBRYS
 10
1303.078463
 20
1093.456009
 40
1.000000
 50
270.000000
 51
360.000000
  0
ARC
  8
OBRYS
 10
1284.078463
 20
1093.456009
 40
1.000000
 50
180.000000
 51
270.000000
  0
LINE
  8
OBRYS
 10
1283.078463
 20
1094.956009
 11
1283.078463
 21
1093.456009
  0
LINE
  8
OBRYS
 10
1304.078463
 20
1093.456009
 11
1304.078463
 21
1094.956009
  0
ARC
  8
OBRYS
 10
1422.078463
 20
1446.456009
 40
1.000000
 50
90.000000
 51
180.000000
  0
ARC
  8
OBRYS
 10
1441.078463
 20
1446.456009
 40
1.000000
 50
0.000000
 51
90.000000
  0
LINE
  8
OBRYS
 10
1442.078463
 20
1444.956009
 11
1442.078463
 21
1446.456009
  0
LINE
  8
OBRYS
 10
1421.078463
 20
1446.456009
 11
1421.078463
 21
1444.956009
  0
ARC
  8
OBRYS
 10
1242.578463
 20
1214.120580
 40
1.000000
 50
180.000000
 51
270.000000
  0
ARC
  8
OBRYS
 10
1242.578463
 20
1230.120580
 40
1.000000
 50
90.000000
 51
180.000000
  0
LINE
  8
OBRYS
 10
1248.578463
 20
1231.120580
 11
1242.578463
 21
1231.120580
  0
LINE
  8
OBRYS
 10
1242.578463
 20
1213.120580
 11
1248.578463
 21
1213.120580
  0
LINE
  8
OBRYS
 10
1248.578463
 20
1326.791438
 11
1242.578463
 21
1326.791438
  0
LINE
  8
OBRYS
 10
1242.578463
 20
1308.791438
 11
1248.578463
 21
1308.791438
  0
ARC
  8
OBRYS
 10
1242.578463
 20
1309.791438
 40
1.000000
 50
180.000000
 51
270.000000
  0
ARC
  8
OBRYS
 10
1242.578463
 20
1325.791438
 40
1.000000
 50
90.000000
 51
180.000000
  0
LINE
  8
OBRYS
 10
1561.578463
 20
1189.956009
 11
1565.078463
 21
1189.956009
  0
LINE
  8
OBRYS
 10
1565.078463
 20
1349.956009
 11
1561.578463
 21
1349.956009
  0
LINE
  8
OBRYS
 10
1556.578463
 20
1159.554010
 11
1561.578463
 21
1159.554010
  0
LINE
  8
OBRYS
 10
1561.578463
 20
1380.358007
 11
1556.578463
 21
1380.358007
  0
LINE
  8
OBRYS
 10
1565.078463
 20
1229.956009
 11
1567.078463
 21
1229.956009
  0
LINE
  8
OBRYS
 10
1567.078463
 20
1309.956009
 11
1565.078463
 21
1309.956009
  0
LINE
  8
OBRYS
 10
1567.078463
 20
1229.956009
 11
1569.078463
 21
1230.683949
  0
LINE
  8
OBRYS
 10
1569.078463
 20
1309.228068
 11
1567.078463
 21
1309.956009
  0
LINE
  8
OBRYS
 10
1569.078463
 20
1239.956009
 11
1688.078463
 21
1239.956009
  0
LINE
  8
OBRYS
 10
1688.078463
 20
1299.956009
 11
1569.078463
 21
1299.956009
  0
LINE
  8
OBRYS
 10
1688.078463
 20
1239.956009
 11
1689.078463
 21
1240.956009
  0
LINE
  8
OBRYS
 10
1689.078463
 20
1298.956009
 11
1688.078463
 21
1299.956009
  0
LINE
  8
OBRYS
 10
1156.578463
 20
1119.956009
 11
1172.648262
 21
1120.517178
  0
LINE
  8
OBRYS
 10
1172.648262
 20
1419.394839
 11
1156.578463
 21
1419.956009
  0
ARC
  8
OBRYS
 10
1172.578463
 20
1122.515960
 40
2.000000
 50
272.000000
 51
360.000000
  0
ARC
  8
OBRYS
 10
1172.578463
 20
1417.396057
 40
2.000000
 50
0.000000
 51
88.000000
  0
ARC
  8
OBRYS
 10
1177.578463
 20
1166.639893
 40
3.000000
 50
92.000000
 51
180.000000
  0
ARC
  8
OBRYS
 10
1177.578463
 20
1373.272124
 40
3.000000
 50
180.000000
 51
268.000000
  0
LINE
  8
OBRYS
 10
1177.473764
 20
1169.638066
 11
1186.578463
 21
1169.956009
  0
LINE
  8
OBRYS
 10
1186.578463
 20
1369.956009
 11
1177.473764
 21
1370.273952
  0
LINE
  8
OBRYS
 10
1461.578463
 20
1361.956009
 11
1495.528599
 21
1361.956009
  0
LINE
  8
OBRYS
 10
1461.575417
 20
1361.962102
 11
1461.577701
 21
1361.959056
  0
LINE
  8
OBRYS
 10
1461.577701
 20
1361.959056
 11
1461.578463
 21
1361.956009
  0
LINE
  8
OBRYS
 10
1491.992269
 20
1361.962102
 11
1461.575417
 21
1361.962102
  0
LINE
  8
OBRYS
 10
1495.526134
 20
1361.984176
 11
1495.363951
 21
1361.982145
  0
LINE
  8
OBRYS
 10
1495.363951
 20
1361.982145
 11
1491.992269
 21
1361.962102
  0
LINE
  8
OBRYS
 10
1495.526134
 20
1361.984176
 11
1495.528599
 21
1361.956009
  0
LINE
  8
OBRYS
 10
1491.992269
 20
1366.959056
 11
1491.992269
 21
1361.962102
  0
LINE
  8
OBRYS
 10
1491.992269
 20
1366.959056
 11
1493.720924
 21
1366.682776
  0
LINE
  8
OBRYS
 10
1493.720924
 20
1366.682776
 11
1495.394092
 21
1366.048349
  0
LINE
  8
OBRYS
 10
1495.394092
 20
1366.048349
 11
1496.626975
 21
1365.078641
  0
LINE
  8
OBRYS
 10
1496.626975
 20
1365.078641
 11
1498.079092
 21
1363.900457
  0
LINE
  8
OBRYS
 10
1498.079092
 20
1363.900457
 11
1499.990621
 21
1363.008125
  0
ARC
  8
OBRYS
 10
1525.275141
 20
1242.521121
 40
123.111434
 50
101.851694
 51
103.983527
  0
LINE
  8
OBRYS
 10
1491.992269
 20
1177.949915
 11
1495.526134
 21
1177.927841
  0
ARC
  8
OBRYS
 10
1535.011879
 20
1339.843759
 40
166.660999
 50
256.295024
 51
257.869754
  0
LINE
  8
OBRYS
 10
1499.990621
 20
1176.903892
 11
1499.780276
 21
1176.841420
  0
LINE
  8
OBRYS
 10
1499.780276
 20
1176.841420
 11
1498.079092
 21
1176.011560
  0
LINE
  8
OBRYS
 10
1498.079092
 20
1176.011560
 11
1496.626975
 21
1174.833376
  0
LINE
  8
OBRYS
 10
1496.626975
 20
1174.833376
 11
1495.394092
 21
1173.863668
  0
LINE
  8
OBRYS
 10
1495.394092
 20
1173.863668
 11
1493.720924
 21
1173.229241
  0
LINE
  8
OBRYS
 10
1493.720924
 20
1173.229241
 11
1491.992269
 21
1172.952961
  0
LINE
  8
OBRYS
 10
1491.992269
 20
1177.949915
 11
1491.992269
 21
1172.952961
  0
LINE
  8
OBRYS
 10
1461.578463
 20
1177.956009
 11
1461.577701
 21
1177.952961
  0
LINE
  8
OBRYS
 10
1461.577701
 20
1177.952961
 11
1461.575417
 21
1177.949915
  0
LINE
  8
OBRYS
 10
1495.528599
 20
1177.956009
 11
1461.578463
 21
1177.956009
  0
LINE
  8
OBRYS
 10
1495.526134
 20
1177.927841
 11
1495.528599
 21
1177.956009
  0
LINE
  8
OBRYS
 10
1461.575417
 20
1177.949915
 11
1491.992269
 21
1177.949915
  0
LINE
  8
OBRYS
 10
1461.578463
 20
1106.956009
 11
1494.998633
 21
1106.956009
  0
LINE
  8
OBRYS
 10
1461.575417
 20
1106.962102
 11
1461.577701
 21
1106.959056
  0
LINE
  8
OBRYS
 10
1461.577701
 20
1106.959056
 11
1461.578463
 21
1106.956009
  0
LINE
  8
OBRYS
 10
1492.120820
 20
1106.962102
 11
1461.575417
 21
1106.962102
  0
LINE
  8
OBRYS
 10
1494.995996
 20
1106.976034
 11
1492.120820
 21
1106.962102
  0
LINE
  8
OBRYS
 10
1494.995996
 20
1106.976034
 11
1494.998633
 21
1106.956009
  0
LINE
  8
OBRYS
 10
1492.120820
 20
1111.959056
 11
1492.120820
 21
1106.962102
  0
LINE
  8
OBRYS
 10
1492.120820
 20
1111.959056
 11
1493.927676
 21
1111.487987
  0
LINE
  8
OBRYS
 10
1493.927676
 20
1111.487987
 11
1495.290163
 21
1110.850513
  0
LINE
  8
OBRYS
 10
1495.290163
 20
1110.850513
 11
1496.580374
 21
1110.007792
  0
LINE
  8
OBRYS
 10
1496.580374
 20
1110.007792
 11
1498.007262
 21
1109.117784
  0
LINE
  8
OBRYS
 10
1498.007262
 20
1109.117784
 11
1499.633817
 21
1108.444931
  0
ARC
  8
OBRYS
 10
1504.709101
 20
1084.364437
 40
24.609525
 50
101.901657
 51
113.246569
  0
LINE
  8
OBRYS
 10
1492.120820
 20
1432.949915
 11
1494.995996
 21
1432.935984
  0
ARC
  8
OBRYS
 10
1541.076548
 20
1570.372276
 40
144.955689
 50
251.464386
 51
253.387388
  0
LINE
  8
OBRYS
 10
1499.633817
 20
1431.467086
 11
1498.060649
 21
1430.822725
  0
LINE
  8
OBRYS
 10
1498.060649
 20
1430.822725
 11
1496.580374
 21
1429.904225
  0
LINE
  8
OBRYS
 10
1496.580374
 20
1429.904225
 11
1495.311760
 21
1429.074135
  0
LINE
  8
OBRYS
 10
1495.311760
 20
1429.074135
 11
1493.927676
 21
1428.424031
  0
LINE
  8
OBRYS
 10
1493.927676
 20
1428.424031
 11
1492.120820
 21
1427.952961
  0
LINE
  8
OBRYS
 10
1492.120820
 20
1432.949915
 11
1492.120820
 21
1427.952961
  0
LINE
  8
OBRYS
 10
1461.578463
 20
1432.956009
 11
1461.577701
 21
1432.952961
  0
LINE
  8
OBRYS
 10
1461.577701
 20
1432.952961
 11
1461.575417
 21
1432.949915
  0
LINE
  8
OBRYS
 10
1494.998633
 20
1432.956009
 11
1461.578463
 21
1432.956009
  0
LINE
  8
OBRYS
 10
1494.995996
 20
1432.935984
 11
1494.998633
 21
1432.956009
  0
LINE
  8
OBRYS
 10
1461.575417
 20
1432.949915
 11
1492.120820
 21
1432.949915
  0
ARC
  8
OBRYS
 10
1196.578463
 20
1421.291133
 40
5.000000
 50
105.000000
 51
180.000000
  0
LINE
  8
OBRYS
 10
1264.942630
 20
1444.785638
 11
1195.284367
 21
1426.120763
  0
ARC
  8
OBRYS
 10
1266.236725
 20
1439.956009
 40
5.000000
 50
90.000000
 51
105.000000
  0
LINE
  8
OBRYS
 10
1383.578463
 20
1444.956009
 11
1266.236725
 21
1444.956009
  0
LINE
  8
OBRYS
 10
1383.578463
 20
1439.956009
 11
1383.578463
 21
1444.956009
  0
LINE
  8
OBRYS
 10
1383.578463
 20
1099.956009
 11
1383.578463
 21
1439.956009
  0
LINE
  8
OBRYS
 10
1383.578463
 20
1094.956009
 11
1383.578463
 21
1099.956009
  0
LINE
  8
OBRYS
 10
1266.236725
 20
1094.956009
 11
1383.578463
 21
1094.956009
  0
ARC
  8
OBRYS
 10
1266.236725
 20
1099.956009
 40
5.000000
 50
255.000000
 51
270.000000
  0
LINE
  8
OBRYS
 10
1195.284367
 20
1113.791255
 11
1264.942630
 21
1095.126379
  0
ARC
  8
OBRYS
 10
1196.578463
 20
1118.620884
 40
5.000000
 50
180.000000
 51
255.000000
  0
LINE
  8
OBRYS
 10
1191.578463
 20
1172.712314
 11
1191.578463
 21
1118.620884
  0
ARC
  8
OBRYS
 10
1196.578463
 20
1172.712314
 40
5.000000
 50
100.000000
 51
180.000000
  0
LINE
  8
OBRYS
 10
1261.446704
 20
1189.227468
 11
1195.710222
 21
1177.636353
  0
ARC
  8
OBRYS
 10
1260.578463
 20
1194.151507
 40
5.000000
 50
280.000000
 51
360.000000
  0
LINE
  8
OBRYS
 10
1265.578463
 20
1345.760510
 11
1265.578463
 21
1194.151507
  0
ARC
  8
OBRYS
 10
1260.578463
 20
1345.760510
 40
5.000000
 50
0.000000
 51
80.000000
  0
LINE
  8
OBRYS
 10
1195.710222
 20
1362.275665
 11
1261.446704
 21
1350.684549
  0
ARC
  8
OBRYS
 10
1196.578463
 20
1367.199703
 40
5.000000
 50
180.000000
 51
260.000000
  0
LINE
  8
OBRYS
 10
1191.578463
 20
1421.291133
 11
1191.578463
 21
1367.199703
  0
LINE
  8
OBRYS
 10
1265.578463
 20
1113.895450
 11
1265.578463
 21
1171.812121
  0
ARC
  8
OBRYS
 10
1260.578463
 20
1171.812121
 40
5.000000
 50
0.000000
 51
100.000000
  0
LINE
  8
OBRYS
 10
1259.710222
 20
1176.736160
 11
1207.710222
 21
1167.567157
  0
ARC
  8
OBRYS
 10
1208.578463
 20
1162.643118
 40
5.000000
 50
100.000000
 51
180.000000
  0
LINE
  8
OBRYS
 10
1203.578463
 20
1162.643118
 11
1203.578463
 21
1127.828808
  0
ARC
  8
OBRYS
 10
1208.578463
 20
1127.828808
 40
5.000000
 50
180.000000
 51
255.000000
  0
LINE
  8
OBRYS
 10
1207.284367
 20
1122.999178
 11
1259.284367
 21
1109.065820
  0
ARC
  8
OBRYS
 10
1260.578463
 20
1113.895450
 40
5.000000
 50
255.000000
 51
360.000000
  0
LINE
  8
OBRYS
 10
1207.710222
 20
1372.344860
 11
1259.710222
 21
1363.175857
  0
ARC
  8
OBRYS
 10
1260.578463
 20
1368.099896
 40
5.000000
 50
260.000000
 51
360.000000
  0
LINE
  8
OBRYS
 10
1265.578463
 20
1368.099896
 11
1265.578463
 21
1426.016568
  0
ARC
  8
OBRYS
 10
1260.578463
 20
1426.016568
 40
5.000000
 50
0.000000
 51
105.000000
  0
LINE
  8
OBRYS
 10
1259.284367
 20
1430.846197
 11
1207.284367
 21
1416.912839
  0
ARC
  8
OBRYS
 10
1208.578463
 20
1412.083210
 40
5.000000
 50
105.000000
 51
180.000000
  0
LINE
  8
OBRYS
 10
1203.578463
 20
1412.083210
 11
1203.578463
 21
1377.268899
  0
ARC
  8
OBRYS
 10
1208.578463
 20
1377.268899
 40
5.000000
 50
180.000000
 51
260.000000
  0
LINE
  8
OBRYS
 10
1461.578463
 20
1099.956009
 11
1461.578463
 21
1094.956009
  0
LINE
  8
OBRYS
 10
1461.578463
 20
1106.956009
 11
1461.578463
 21
1099.956009
  0
LINE
  8
OBRYS
 10
1494.998633
 20
1106.956009
 11
1540.872558
 21
1119.247890
  0
ARC
  8
OBRYS
 10
1539.578463
 20
1124.077519
 40
5.000000
 50
285.000000
 51
360.000000
  0
LINE
  8
OBRYS
 10
1544.578463
 20
1124.077519
 11
1544.578463
 21
1165.111696
  0
ARC
  8
OBRYS
 10
1539.578463
 20
1165.111696
 40
5.000000
 50
0.000000
 51
80.000000
  0
LINE
  8
OBRYS
 10
1540.446704
 20
1170.035735
 11
1495.528599
 21
1177.956009
  0
LINE
  8
OBRYS
 10
1461.578463
 20
1189.956009
 11
1461.578463
 21
1177.956009
  0
LINE
  8
OBRYS
 10
1491.578463
 20
1189.956009
 11
1461.578463
 21
1189.956009
  0
LINE
  8
OBRYS
 10
1496.578463
 20
1189.956009
 11
1491.578463
 21
1189.956009
  0
LINE
  8
OBRYS
 10
1552.446704
 20
1180.104930
 11
1496.578463
 21
1189.956009
  0
ARC
  8
OBRYS
 10
1551.578463
 20
1175.180892
 40
5.000000
 50
0.000000
 51
80.000000
  0
LINE
  8
OBRYS
 10
1556.578463
 20
1114.869595
 11
1556.578463
 21
1175.180892
  0
ARC
  8
OBRYS
 10
1551.578463
 20
1114.869595
 40
5.000000
 50
285.000000
 51
360.000000
  0
LINE
  8
OBRYS
 10
1497.214295
 20
1095.126379
 11
1552.872558
 21
1110.039966
  0
ARC
  8
OBRYS
 10
1495.920200
 20
1099.956009
 40
5.000000
 50
270.000000
 51
285.000000
  0
LINE
  8
OBRYS
 10
1461.578463
 20
1094.956009
 11
1495.920200
 21
1094.956009
  0
LINE
  8
OBRYS
 10
1383.578463
 20
1439.956009
 11
1388.578463
 21
1439.956009
  0
LINE
  8
OBRYS
 10
1388.578463
 20
1439.956009
 11
1388.578463
 21
1099.956009
  0
LINE
  8
OBRYS
 10
1383.578463
 20
1099.956009
 11
1388.578463
 21
1099.956009
  0
LINE
  8
OBRYS
 10
1388.578463
 20
1099.956009
 11
1388.578463
 21
1094.956009
  0
LINE
  8
OBRYS
 10
1388.578463
 20
1094.956009
 11
1383.578463
 21
1094.956009
  0
LINE
  8
OBRYS
 10
1456.578463
 20
1094.956009
 11
1456.578463
 21
1099.956009
  0
LINE
  8
OBRYS
 10
1461.578463
 20
1099.956009
 11
1456.578463
 21
1099.956009
  0
LINE
  8
OBRYS
 10
1461.578463
 20
1094.956009
 11
1456.578463
 21
1094.956009
  0
LINE
  8
OBRYS
 10
1456.578463
 20
1099.956009
 11
1456.578463
 21
1111.959056
  0
LINE
  8
OBRYS
 10
1461.575417
 20
1106.962102
 11
1456.578463
 21
1111.959056
  0
LINE
  8
OBRYS
 10
1264.806550
 20
1113.895450
 11
1265.578463
 21
1113.895450
  0
LINE
  8
OBRYS
 10
1264.806550
 20
1171.812121
 11
1264.806550
 21
1113.895450
  0
LINE
  8
OBRYS
 10
1264.806550
 20
1171.812121
 11
1265.578463
 21
1171.812121
  0
LINE
  8
OBRYS
 10
1259.484153
 20
1109.811431
 11
1259.284367
 21
1109.065820
  0
ARC
  8
OBRYS
 10
1260.578463
 20
1113.895450
 40
4.228087
 50
255.000000
 51
360.000000
  0
LINE
  8
OBRYS
 10
1207.484153
 20
1123.744789
 11
1207.284367
 21
1122.999178
  0
LINE
  8
OBRYS
 10
1259.484153
 20
1109.811431
 11
1207.484153
 21
1123.744789
  0
LINE
  8
OBRYS
 10
1543.806550
 20
1124.077519
 11
1544.578463
 21
1124.077519
  0
LINE
  8
OBRYS
 10
1543.806550
 20
1165.111696
 11
1543.806550
 21
1124.077519
  0
LINE
  8
OBRYS
 10
1543.806550
 20
1165.111696
 11
1544.578463
 21
1165.111696
  0
LINE
  8
OBRYS
 10
1502.672772
 20
1109.811431
 11
1502.783753
 21
1109.397243
  0
LINE
  8
OBRYS
 10
1540.672772
 20
1119.993501
 11
1502.672772
 21
1109.811431
  0
LINE
  8
OBRYS
 10
1540.672772
 20
1119.993501
 11
1540.872558
 21
1119.247890
  0
ARC
  8
OBRYS
 10
1427.904942
 20
1351.386165
 40
253.309050
 50
286.449339
 51
287.193675
  0
LINE
  8
OBRYS
 10
1204.350376
 20
1162.643118
 11
1203.578463
 21
1162.643118
  0
LINE
  8
OBRYS
 10
1204.350376
 20
1127.828808
 11
1204.350376
 21
1162.643118
  0
LINE
  8
OBRYS
 10
1204.350376
 20
1127.828808
 11
1203.578463
 21
1127.828808
  0
ARC
  8
OBRYS
 10
1539.578463
 20
1124.077519
 40
4.228087
 50
285.000000
 51
360.000000
  0
ARC
  8
OBRYS
 10
1208.578463
 20
1127.828808
 40
4.228087
 50
180.000000
 51
255.000000
  0
LINE
  8
OBRYS
 10
1207.844263
 20
1166.806971
 11
1207.710222
 21
1167.567157
  0
ARC
  8
OBRYS
 10
1208.578463
 20
1162.643118
 40
4.228087
 50
100.000000
 51
180.000000
  0
ARC
  8
OBRYS
 10
1539.578463
 20
1165.111696
 40
4.228087
 50
0.000000
 51
80.000000
  0
LINE
  8
OBRYS
 10
1540.312662
 20
1169.275549
 11
1540.446704
 21
1170.035735
  0
LINE
  8
OBRYS
 10
1259.844263
 20
1175.975974
 11
1259.710222
 21
1176.736160
  0
LINE
  8
OBRYS
 10
1207.844263
 20
1166.806971
 11
1259.844263
 21
1175.975974
  0
LINE
  8
OBRYS
 10
1456.578463
 20
1172.952961
 11
1461.575417
 21
1177.949915
  0
LINE
  8
OBRYS
 10
1456.578463
 20
1172.952961
 11
1456.578463
 21
1194.956009
  0
LINE
  8
OBRYS
 10
1461.578463
 20
1189.956009
 11
1456.578463
 21
1194.956009
  0
ARC
  8
OBRYS
 10
1260.578463
 20
1171.812121
 40
4.228087
 50
0.000000
 51
100.000000
  0
LINE
  8
OBRYS
 10
1502.312662
 20
1175.975974
 11
1540.312662
 21
1169.275549
  0
LINE
  8
OBRYS
 10
1502.312662
 20
1175.975974
 11
1502.387122
 21
1176.398259
  0
LINE
  8
OBRYS
 10
1499.990621
 20
1176.903892
 11
1502.377511
 21
1176.400314
  0
LINE
  8
OBRYS
 10
1502.377511
 20
1176.400314
 11
1502.387122
 21
1176.398259
  0
LINE
  8
OBRYS
 10
1456.578463
 20
1194.956009
 11
1491.578463
 21
1194.956009
  0
LINE
  8
OBRYS
 10
1491.578463
 20
1189.956009
 11
1491.578463
 21
1194.956009
  0
LINE
  8
OBRYS
 10
1491.578463
 20
1194.956009
 11
1494.297184
 21
1194.956009
  0
LINE
  8
OBRYS
 10
1496.451856
 20
1189.978333
 11
1495.600178
 21
1190.412943
  0
LINE
  8
OBRYS
 10
1495.600178
 20
1190.412943
 11
1494.906995
 21
1191.356789
  0
LINE
  8
OBRYS
 10
1494.906995
 20
1191.356789
 11
1494.450333
 21
1192.702547
  0
LINE
  8
OBRYS
 10
1494.450333
 20
1192.702547
 11
1494.280345
 21
1194.303134
  0
LINE
  8
OBRYS
 10
1494.280345
 20
1194.303134
 11
1494.295555
 21
1194.928838
  0
LINE
  8
OBRYS
 10
1494.295555
 20
1194.928838
 11
1494.297184
 21
1194.956009
  0
ARC
  8
OBRYS
 10
1551.578463
 20
1425.042422
 40
5.000000
 50
0.000000
 51
75.000000
  0
LINE
  8
OBRYS
 10
1556.578463
 20
1364.731126
 11
1556.578463
 21
1425.042422
  0
ARC
  8
OBRYS
 10
1551.578463
 20
1364.731126
 40
5.000000
 50
280.000000
 51
360.000000
  0
LINE
  8
OBRYS
 10
1496.578463
 20
1349.956009
 11
1552.446704
 21
1359.807087
  0
LINE
  8
OBRYS
 10
1491.578463
 20
1349.956009
 11
1496.578463
 21
1349.956009
  0
LINE
  8
OBRYS
 10
1461.578463
 20
1349.956009
 11
1491.578463
 21
1349.956009
  0
LINE
  8
OBRYS
 10
1461.578463
 20
1361.956009
 11
1461.578463
 21
1349.956009
  0
LINE
  8
OBRYS
 10
1495.528599
 20
1361.956009
 11
1540.446704
 21
1369.876282
  0
ARC
  8
OBRYS
 10
1539.578463
 20
1374.800321
 40
5.000000
 50
280.000000
 51
360.000000
  0
LINE
  8
OBRYS
 10
1544.578463
 20
1374.800321
 11
1544.578463
 21
1415.834498
  0
ARC
  8
OBRYS
 10
1539.578463
 20
1415.834498
 40
5.000000
 50
0.000000
 51
75.000000
  0
LINE
  8
OBRYS
 10
1540.872558
 20
1420.664127
 11
1494.998633
 21
1432.956009
  0
LINE
  8
OBRYS
 10
1461.578463
 20
1439.956009
 11
1461.578463
 21
1432.956009
  0
LINE
  8
OBRYS
 10
1461.578463
 20
1444.956009
 11
1461.578463
 21
1439.956009
  0
LINE
  8
OBRYS
 10
1495.920200
 20
1444.956009
 11
1461.578463
 21
1444.956009
  0
ARC
  8
OBRYS
 10
1495.920200
 20
1439.956009
 40
5.000000
 50
75.000000
 51
90.000000
  0
LINE
  8
OBRYS
 10
1552.872558
 20
1429.872051
 11
1497.214295
 21
1444.785638
  0
LINE
  8
OBRYS
 10
1461.575417
 20
1361.962102
 11
1456.578463
 21
1366.959056
  0
LINE
  8
OBRYS
 10
1456.578463
 20
1344.956009
 11
1461.578463
 21
1349.956009
  0
LINE
  8
OBRYS
 10
1456.578463
 20
1344.956009
 11
1456.578463
 21
1366.959056
  0
LINE
  8
OBRYS
 10
1491.578463
 20
1344.956009
 11
1456.578463
 21
1344.956009
  0
LINE
  8
OBRYS
 10
1491.578463
 20
1344.956009
 11
1491.578463
 21
1349.956009
  0
LINE
  8
OBRYS
 10
1259.844263
 20
1363.936043
 11
1259.710222
 21
1363.175857
  0
ARC
  8
OBRYS
 10
1260.578463
 20
1368.099896
 40
4.228087
 50
260.000000
 51
360.000000
  0
LINE
  8
OBRYS
 10
1264.806550
 20
1368.099896
 11
1265.578463
 21
1368.099896
  0
LINE
  8
OBRYS
 10
1502.312662
 20
1363.936043
 11
1502.387122
 21
1363.513759
  0
LINE
  8
OBRYS
 10
1540.312662
 20
1370.636468
 11
1502.312662
 21
1363.936043
  0
LINE
  8
OBRYS
 10
1540.312662
 20
1370.636468
 11
1540.446704
 21
1369.876282
  0
LINE
  8
OBRYS
 10
1502.387122
 20
1363.513759
 11
1502.377511
 21
1363.511703
  0
LINE
  8
OBRYS
 10
1502.377511
 20
1363.511703
 11
1499.990621
 21
1363.008125
  0
LINE
  8
OBRYS
 10
1494.297184
 20
1344.956009
 11
1494.295555
 21
1344.983179
  0
LINE
  8
OBRYS
 10
1494.295555
 20
1344.983179
 11
1494.280345
 21
1345.608883
  0
LINE
  8
OBRYS
 10
1494.280345
 20
1345.608883
 11
1494.450333
 21
1347.209470
  0
LINE
  8
OBRYS
 10
1494.450333
 20
1347.209470
 11
1494.906995
 21
1348.555228
  0
LINE
  8
OBRYS
 10
1494.906995
 20
1348.555228
 11
1495.600178
 21
1349.499075
  0
LINE
  8
OBRYS
 10
1495.600178
 20
1349.499075
 11
1496.451856
 21
1349.933684
  0
LINE
  8
OBRYS
 10
1494.297184
 20
1344.956009
 11
1491.578463
 21
1344.956009
  0
LINE
  8
OBRYS
 10
1207.844263
 20
1373.105046
 11
1207.710222
 21
1372.344860
  0
LINE
  8
OBRYS
 10
1259.844263
 20
1363.936043
 11
1207.844263
 21
1373.105046
  0
ARC
  8
OBRYS
 10
1539.578463
 20
1374.800321
 40
4.228087
 50
280.000000
 51
360.000000
  0
LINE
  8
OBRYS
 10
1543.806550
 20
1374.800321
 11
1544.578463
 21
1374.800321
  0
LINE
  8
OBRYS
 10
1264.806550
 20
1426.016568
 11
1264.806550
 21
1368.099896
  0
LINE
  8
OBRYS
 10
1264.806550
 20
1426.016568
 11
1265.578463
 21
1426.016568
  0
LINE
  8
OBRYS
 10
1204.350376
 20
1377.268899
 11
1203.578463
 21
1377.268899
  0
ARC
  8
OBRYS
 10
1208.578463
 20
1377.268899
 40
4.228087
 50
180.000000
 51
260.000000
  0
LINE
  8
OBRYS
 10
1543.806550
 20
1415.834498
 11
1543.806550
 21
1374.800321
  0
LINE
  8
OBRYS
 10
1543.806550
 20
1415.834498
 11
1544.578463
 21
1415.834498
  0
LINE
  8
OBRYS
 10
1204.350376
 20
1412.083210
 11
1203.578463
 21
1412.083210
  0
LINE
  8
OBRYS
 10
1204.350376
 20
1377.268899
 11
1204.350376
 21
1412.083210
  0
LINE
  8
OBRYS
 10
1207.484153
 20
1416.167228
 11
1207.284367
 21
1416.912839
  0
ARC
  8
OBRYS
 10
1208.578463
 20
1412.083210
 40
4.228087
 50
105.000000
 51
180.000000
  0
LINE
  8
OBRYS
 10
1259.484153
 20
1430.100586
 11
1259.284367
 21
1430.846197
  0
LINE
  8
OBRYS
 10
1207.484153
 20
1416.167228
 11
1259.484153
 21
1430.100586
  0
ARC
  8
OBRYS
 10
1539.578463
 20
1415.834498
 40
4.228087
 50
0.000000
 51
75.000000
  0
LINE
  8
OBRYS
 10
1540.672772
 20
1419.918517
 11
1540.872558
 21
1420.664127
  0
LINE
  8
OBRYS
 10
1502.672772
 20
1430.100586
 11
1540.672772
 21
1419.918517
  0
LINE
  8
OBRYS
 10
1502.672772
 20
1430.100586
 11
1502.783753
 21
1430.514774
  0
ARC
  8
OBRYS
 10
1391.863716
 20
1069.313294
 40
377.848864
 50
72.928993
 51
73.427993
  0
ARC
  8
OBRYS
 10
1260.578463
 20
1426.016568
 40
4.228087
 50
0.000000
 51
105.000000
  0
LINE
  8
OBRYS
 10
1456.578463
 20
1427.952961
 11
1461.575417
 21
1432.949915
  0
LINE
  8
OBRYS
 10
1456.578463
 20
1427.952961
 11
1456.578463
 21
1439.956009
  0
LINE
  8
OBRYS
 10
1456.578463
 20
1439.956009
 11
1461.578463
 21
1439.956009
  0
LINE
  8
OBRYS
 10
1388.578463
 20
1444.956009
 11
1388.578463
 21
1439.956009
  0
LINE
  8
OBRYS
 10
1383.578463
 20
1444.956009
 11
1388.578463
 21
1444.956009
  0
LINE
  8
OBRYS
 10
1456.578463
 20
1439.956009
 11
1456.578463
 21
1444.956009
  0
LINE
  8
OBRYS
 10
1456.578463
 20
1444.956009
 11
1461.578463
 21
1444.956009
  0
LINE
  8
OBRYS
 10
1456.578463
 20
1111.959056
 11
1492.120820
 21
1111.959056
  0
LINE
  8
OBRYS
 10
1491.992269
 20
1172.952961
 11
1456.578463
 21
1172.952961
  0
LINE
  8
OBRYS
 10
1456.578463
 20
1366.959056
 11
1491.992269
 21
1366.959056
  0
LINE
  8
OBRYS
 10
1492.120820
 20
1427.952961
 11
1456.578463
 21
1427.952961
  0
LINE
  8
OBRYS
 10
1494.297184
 20
1194.956009
 11
1496.578463
 21
1194.151507
  0
ARC
  8
OBRYS
 10
1501.578463
 20
1194.151507
 40
5.000000
 50
180.000000
 51
260.000000
  0
ARC
  8
OBRYS
 10
1501.578463
 20
1345.760510
 40
5.000000
 50
100.000000
 51
180.000000
  0
LINE
  8
OBRYS
 10
1496.578463
 20
1345.760510
 11
1494.297184
 21
1344.956009
  0
ARC
  8
OBRYS
 10
1501.578463
 20
1426.016568
 40
4.656886
 50
75.000000
 51
180.000000
  0
LINE
  8
OBRYS
 10
1496.921577
 20
1426.016568
 11
1491.924623
 21
1426.016568
  0
ARC
  8
OBRYS
 10
1501.578463
 20
1426.016568
 40
9.653840
 50
168.428964
 51
180.000000
  0
LINE
  8
OBRYS
 10
1496.921577
 20
1113.895450
 11
1491.924623
 21
1113.895450
  0
ARC
  8
OBRYS
 10
1501.578463
 20
1113.895450
 40
4.656886
 50
180.000000
 51
285.000000
  0
ARC
  8
OBRYS
 10
1501.578463
 20
1113.895450
 40
9.653840
 50
180.000000
 51
191.571036
  0
LINE
  8
OBRYS
 10
1496.921577
 20
1368.099896
 11
1491.924623
 21
1368.099896
  0
ARC
  8
OBRYS
 10
1501.578463
 20
1368.099896
 40
4.656886
 50
180.000000
 51
280.000000
  0
ARC
  8
OBRYS
 10
1501.578463
 20
1368.099896
 40
9.653840
 50
180.000000
 51
186.786771
  0
ARC
  8
OBRYS
 10
1501.578463
 20
1171.812121
 40
4.656886
 50
80.000000
 51
180.000000
  0
LINE
  8
OBRYS
 10
1496.921577
 20
1171.812121
 11
1491.924623
 21
1171.812121
  0
ARC
  8
OBRYS
 10
1501.578463
 20
1171.812121
 40
9.653840
 50
173.213229
 51
180.000000
  0
LINE
  8
OBRYS
 10
1491.924623
 20
1113.895450
 11
1491.924623
 21
1171.812121
  0
LINE
  8
OBRYS
 10
1388.578463
 20
1099.956009
 11
1456.578463
 21
1099.956009
  0
LINE
  8
OBRYS
 10
1456.578463
 20
1439.956009
 11
1388.578463
 21
1439.956009
  0
LINE
  8
OBRYS
 10
1491.924623
 20
1368.099896
 11
1491.924623
 21
1426.016568
  0
LINE
  8
OBRYS
 10
1491.578463
 20
1194.956009
 11
1491.578463
 21
1344.956009
  0
LINE
  8
OBRYS
 10
1456.578463
 20
1094.956009
 11
1388.578463
 21
1094.956009
  0
LINE
  8
OBRYS
 10
1496.921577
 20
1171.812121
 11
1496.921577
 21
1113.895450
  0
LINE
  8
OBRYS
 10
1496.578463
 20
1345.760510
 11
1496.578463
 21
1194.151507
  0
LINE
  8
OBRYS
 10
1496.921577
 20
1426.016568
 11
1496.921577
 21
1368.099896
  0
LINE
  8
OBRYS
 10
1388.578463
 20
1444.956009
 11
1456.578463
 21
1444.956009
  0
ARC
  8
OBRYS
 10
1501.578463
 20
1113.895450
 40
4.228087
 50
180.000000
 51
285.000000
  0
LINE
  8
OBRYS
 10
1497.350376
 20
1113.895450
 11
1496.921577
 21
1113.895450
  0
LINE
  8
OBRYS
 10
1497.350376
 20
1113.895450
 11
1497.350376
 21
1171.812121
  0
LINE
  8
OBRYS
 10
1497.350376
 20
1171.812121
 11
1496.921577
 21
1171.812121
  0
ARC
  8
OBRYS
 10
1501.578463
 20
1171.812121
 40
4.228087
 50
80.000000
 51
180.000000
  0
ARC
  8
OBRYS
 10
1501.578463
 20
1368.099896
 40
4.228087
 50
180.000000
 51
280.000000
  0
LINE
  8
OBRYS
 10
1497.350376
 20
1368.099896
 11
1496.921577
 21
1368.099896
  0
LINE
  8
OBRYS
 10
1497.350376
 20
1368.099896
 11
1497.350376
 21
1426.016568
  0
LINE
  8
OBRYS
 10
1497.350376
 20
1426.016568
 11
1496.921577
 21
1426.016568
  0
ARC
  8
OBRYS
 10
1501.578463
 20
1426.016568
 40
4.228087
 50
75.000000
 51
180.000000
  0
LINE
  8
OBRYS
 10
1284.078463
 20
1092.456009
 11
1303.078463
 21
1092.456009
  0
LINE
  8
OBRYS
 10
1264.806550
 20
1113.895450
 11
1261.808377
 21
1113.895450
  0
LINE
  8
OBRYS
 10
1261.808377
 20
1113.895450
 11
1261.808377
 21
1171.812121
  0
LINE
  8
OBRYS
 10
1264.806550
 20
1171.812121
 11
1261.808377
 21
1171.812121
  0
LINE
  8
OBRYS
 10
1497.350376
 20
1171.812121
 11
1500.348548
 21
1171.812121
  0
LINE
  8
OBRYS
 10
1500.348548
 20
1171.812121
 11
1500.348548
 21
1113.895450
  0
LINE
  8
OBRYS
 10
1497.350376
 20
1113.895450
 11
1500.348548
 21
1113.895450
  0
ARC
  8
OBRYS
 10
1208.578463
 20
1127.828808
 40
1.229914
 50
180.000000
 51
255.000000
  0
LINE
  8
OBRYS
 10
1208.260137
 20
1126.640801
 11
1207.484153
 21
1123.744789
  0
LINE
  8
OBRYS
 10
1207.348548
 20
1127.828808
 11
1204.350376
 21
1127.828808
  0
ARC
  8
OBRYS
 10
1539.578463
 20
1124.077519
 40
1.229914
 50
285.000000
 51
360.000000
  0
LINE
  8
OBRYS
 10
1540.808377
 20
1124.077519
 11
1543.806550
 21
1124.077519
  0
LINE
  8
OBRYS
 10
1539.896788
 20
1122.889513
 11
1540.672772
 21
1119.993501
  0
LINE
  8
OBRYS
 10
1208.260137
 20
1126.640801
 11
1260.260137
 21
1112.707443
  0
LINE
  8
OBRYS
 10
1259.484153
 20
1109.811431
 11
1260.260137
 21
1112.707443
  0
LINE
  8
OBRYS
 10
1501.896788
 20
1112.707443
 11
1539.896788
 21
1122.889513
  0
LINE
  8
OBRYS
 10
1502.672772
 20
1109.811431
 11
1501.896788
 21
1112.707443
  0
ARC
  8
OBRYS
 10
1260.578463
 20
1113.895450
 40
1.229914
 50
255.000000
 51
360.000000
  0
LINE
  8
OBRYS
 10
1540.808377
 20
1165.111696
 11
1543.806550
 21
1165.111696
  0
LINE
  8
OBRYS
 10
1540.808377
 20
1124.077519
 11
1540.808377
 21
1139.567154
  0
ARC
  8
OBRYS
 10
1524.768064
 20
1144.956009
 40
16.921330
 50
341.429867
 51
18.570133
  0
LINE
  8
OBRYS
 10
1540.808377
 20
1150.344864
 11
1540.808377
 21
1165.111696
  0
ARC
  8
OBRYS
 10
1501.578463
 20
1113.895450
 40
1.229914
 50
180.000000
 51
285.000000
  0
LINE
  8
OBRYS
 10
1207.348548
 20
1162.643118
 11
1204.350376
 21
1162.643118
  0
LINE
  8
OBRYS
 10
1207.348548
 20
1162.643118
 11
1207.348548
 21
1150.344864
  0
ARC
  8
OBRYS
 10
1223.388862
 20
1144.956009
 40
16.921330
 50
161.429867
 51
198.570133
  0
LINE
  8
OBRYS
 10
1207.348548
 20
1139.567154
 11
1207.348548
 21
1127.828808
  0
ARC
  8
OBRYS
 10
1539.578463
 20
1165.111696
 40
1.229914
 50
0.000000
 51
80.000000
  0
LINE
  8
OBRYS
 10
1539.792035
 20
1166.322925
 11
1540.312662
 21
1169.275549
  0
LINE
  8
OBRYS
 10
1260.364890
 20
1173.023351
 11
1208.364890
 21
1163.854348
  0
LINE
  8
OBRYS
 10
1208.364890
 20
1163.854348
 11
1207.844263
 21
1166.806971
  0
LINE
  8
OBRYS
 10
1259.844263
 20
1175.975974
 11
1260.364890
 21
1173.023351
  0
ARC
  8
OBRYS
 10
1208.578463
 20
1162.643118
 40
1.229914
 50
100.000000
 51
180.000000
  0
LINE
  8
OBRYS
 10
1539.792035
 20
1166.322925
 11
1501.792035
 21
1173.023351
  0
LINE
  8
OBRYS
 10
1502.312662
 20
1175.975974
 11
1501.792035
 21
1173.023351
  0
ARC
  8
OBRYS
 10
1260.578463
 20
1171.812121
 40
1.229914
 50
0.000000
 51
100.000000
  0
ARC
  8
OBRYS
 10
1501.578463
 20
1171.812121
 40
1.229914
 50
80.000000
 51
180.000000
  0
LINE
  8
OBRYS
 10
1207.844263
 20
1373.105046
 11
1208.364890
 21
1376.057670
  0
LINE
  8
OBRYS
 10
1208.364890
 20
1376.057670
 11
1260.364890
 21
1366.888667
  0
LINE
  8
OBRYS
 10
1259.844263
 20
1363.936043
 11
1260.364890
 21
1366.888667
  0
ARC
  8
OBRYS
 10
1501.578463
 20
1368.099896
 40
1.229914
 50
180.000000
 51
280.000000
  0
LINE
  8
OBRYS
 10
1501.792035
 20
1366.888667
 11
1502.312662
 21
1363.936043
  0
LINE
  8
OBRYS
 10
1500.348548
 20
1368.099896
 11
1497.350376
 21
1368.099896
  0
LINE
  8
OBRYS
 10
1501.792035
 20
1366.888667
 11
1539.792035
 21
1373.589092
  0
LINE
  8
OBRYS
 10
1540.312662
 20
1370.636468
 11
1539.792035
 21
1373.589092
  0
ARC
  8
OBRYS
 10
1260.578463
 20
1368.099896
 40
1.229914
 50
260.000000
 51
360.000000
  0
LINE
  8
OBRYS
 10
1264.806550
 20
1368.099896
 11
1261.808377
 21
1368.099896
  0
ARC
  8
OBRYS
 10
1539.578463
 20
1374.800321
 40
1.229914
 50
280.000000
 51
360.000000
  0
LINE
  8
OBRYS
 10
1543.806550
 20
1374.800321
 11
1540.808377
 21
1374.800321
  0
LINE
  8
OBRYS
 10
1500.348548
 20
1426.016568
 11
1500.348548
 21
1368.099896
  0
LINE
  8
OBRYS
 10
1500.348548
 20
1426.016568
 11
1497.350376
 21
1426.016568
  0
LINE
  8
OBRYS
 10
1261.808377
 20
1368.099896
 11
1261.808377
 21
1426.016568
  0
LINE
  8
OBRYS
 10
1261.808377
 20
1426.016568
 11
1264.806550
 21
1426.016568
  0
LINE
  8
OBRYS
 10
1204.350376
 20
1377.268899
 11
1207.348548
 21
1377.268899
  0
ARC
  8
OBRYS
 10
1208.578463
 20
1377.268899
 40
1.229914
 50
180.000000
 51
260.000000
  0
LINE
  8
OBRYS
 10
1543.806550
 20
1415.834498
 11
1540.808377
 21
1415.834498
  0
LINE
  8
OBRYS
 10
1540.808377
 20
1374.800321
 11
1540.808377
 21
1389.567154
  0
ARC
  8
OBRYS
 10
1524.768064
 20
1394.956009
 40
16.921330
 50
341.429867
 51
18.570133
  0
LINE
  8
OBRYS
 10
1540.808377
 20
1400.344864
 11
1540.808377
 21
1415.834498
  0
LINE
  8
OBRYS
 10
1207.348548
 20
1412.083210
 11
1204.350376
 21
1412.083210
  0
LINE
  8
OBRYS
 10
1207.348548
 20
1412.083210
 11
1207.348548
 21
1400.344864
  0
ARC
  8
OBRYS
 10
1223.388862
 20
1394.956009
 40
16.921330
 50
161.429867
 51
198.570133
  0
LINE
  8
OBRYS
 10
1207.348548
 20
1389.567154
 11
1207.348548
 21
1377.268899
  0
LINE
  8
OBRYS
 10
1260.260137
 20
1427.204574
 11
1208.260137
 21
1413.271216
  0
LINE
  8
OBRYS
 10
1208.260137
 20
1413.271216
 11
1207.484153
 21
1416.167228
  0
LINE
  8
OBRYS
 10
1260.260137
 20
1427.204574
 11
1259.484153
 21
1430.100586
  0
ARC
  8
OBRYS
 10
1208.578463
 20
1412.083210
 40
1.229914
 50
105.000000
 51
180.000000
  0
LINE
  8
OBRYS
 10
1539.896788
 20
1417.022504
 11
1501.896788
 21
1427.204574
  0
LINE
  8
OBRYS
 10
1501.896788
 20
1427.204574
 11
1502.672772
 21
1430.100586
  0
LINE
  8
OBRYS
 10
1540.672772
 20
1419.918517
 11
1539.896788
 21
1417.022504
  0
ARC
  8
OBRYS
 10
1539.578463
 20
1415.834498
 40
1.229914
 50
0.000000
 51
75.000000
  0
ARC
  8
OBRYS
 10
1501.578463
 20
1426.016568
 40
1.229914
 50
75.000000
 51
180.000000
  0
ARC
  8
OBRYS
 10
1260.578463
 20
1426.016568
 40
1.229914
 50
0.000000
 51
105.000000
  0
ARC
  8
OBRYS
 10
1529.011789
 20
1144.956009
 40
11.969777
 50
335.458648
 51
24.541352
  0
LINE
  8
OBRYS
 10
1540.808377
 20
1150.344864
 11
1539.900237
 21
1149.927654
  0
LINE
  8
OBRYS
 10
1539.900237
 20
1139.984363
 11
1540.808377
 21
1139.567154
  0
LINE
  8
OBRYS
 10
1207.348548
 20
1150.344864
 11
1208.256688
 21
1149.927654
  0
ARC
  8
OBRYS
 10
1219.145136
 20
1144.956009
 40
11.969777
 50
155.458648
 51
204.541352
  0
LINE
  8
OBRYS
 10
1208.256688
 20
1139.984363
 11
1207.348548
 21
1139.567154
  0
LINE
  8
OBRYS
 10
1540.808377
 20
1389.567154
 11
1539.900237
 21
1389.984363
  0
ARC
  8
OBRYS
 10
1529.011789
 20
1394.956009
 40
11.969777
 50
335.458648
 51
24.541352
  0
LINE
  8
OBRYS
 10
1539.900237
 20
1399.927654
 11
1540.808377
 21
1400.344864
  0
LINE
  8
OBRYS
 10
1207.348548
 20
1400.344864
 11
1208.256688
 21
1399.927654
  0
ARC
  8
OBRYS
 10
1219.145136
 20
1394.956009
 40
11.969777
 50
155.458648
 51
204.541352
  0
LINE
  8
OBRYS
 10
1208.256688
 20
1389.984363
 11
1207.348548
 21
1389.567154
  0
ARC
  8
OBRYS
 10
1219.078463
 20
1144.956009
 40
12.908550
 50
204.674584
 51
155.325416
  0
ARC
  8
OBRYS
 10
1529.078463
 20
1144.956009
 40
12.908550
 50
24.674584
 51
335.325416
  0
ARC
  8
OBRYS
 10
1219.078463
 20
1394.956009
 40
12.908550
 50
204.674584
 51
155.325416
  0
ARC
  8
OBRYS
 10
1529.078463
 20
1394.956009
 40
12.908550
 50
24.674584
 51
335.325416
  0
LINE
  8
OBRYS
 10
1496.578463
 20
1268.485955
 11
1496.578475
 21
1268.477179
  0
LINE
  8
OBRYS
 10
1496.578475
 20
1268.477179
 11
1496.578717
 21
1268.446528
  0
ARC
  8
OBRYS
 10
1501.502632
 20
1268.566607
 40
4.925379
 50
181.396994
 51
268.852153
  0
LINE
  8
OBRYS
 10
1504.752960
 20
1263.528629
 11
1501.403965
 21
1263.642216
  0
LINE
  8
OBRYS
 10
1509.578463
 20
1258.675343
 11
1509.578463
 21
1187.663758
  0
ARC
  8
OBRYS
 10
1504.655337
 20
1258.605982
 40
4.923615
 50
0.807170
 51
88.863886
  0
LINE
  8
OBRYS
 10
1260.578463
 20
1189.074374
 11
1260.578463
 21
1350.837643
  0
LINE
  8
OBRYS
 10
1248.578463
 20
1186.958450
 11
1248.578463
 21
1352.953567
  0
LINE
  8
OBRYS
 10
1441.078463
 20
1447.456009
 11
1422.078463
 21
1447.456009
  0
LINE
  8
OBRYS
 10
1241.578463
 20
1214.120581
 11
1241.578463
 21
1230.120580
  0
LINE
  8
OBRYS
 10
1241.578463
 20
1309.791439
 11
1241.578463
 21
1325.791438
  0
LINE
  8
OBRYS
 10
1496.578717
 20
1268.446528
 11
1496.587580
 21
1268.301046
  0
LINE
  8
OBRYS
 10
1496.587580
 20
1268.301046
 11
1496.681654
 21
1268.061792
  0
LINE
  8
OBRYS
 10
1496.681654
 20
1268.061792
 11
1497.274607
 21
1267.748212
  0
LINE
  8
OBRYS
 10
1497.274607
 20
1267.748212
 11
1498.343197
 21
1267.563005
  0
LINE
  8
OBRYS
 10
1498.343197
 20
1267.563005
 11
1499.771709
 21
1267.458213
  0
LINE
  8
OBRYS
 10
1499.771709
 20
1267.458213
 11
1501.403965
 21
1267.420089
  0
LINE
  8
OBRYS
 10
1501.403965
 20
1267.420089
 11
1501.403965
 21
1263.642216
  0
ARC
  8
OBRYS
 10
1500.344117
 20
1294.974489
 40
11.655189
 50
251.150211
 51
276.079326
  0
LINE
  8
OBRYS
 10
1501.578463
 20
1283.384846
 11
1501.578463
 21
1267.408110
  0
LINE
  8
OBRYS
 10
1501.578463
 20
1267.408110
 11
1501.403965
 21
1267.420089
  0
ARC
  8
OBRYS
 10
1501.568968
 20
1292.796790
 40
4.990514
 50
180.109430
 51
270.109013
  0
LINE
  8
OBRYS
 10
1501.578463
 20
1287.806285
 11
1501.578463
 21
1283.384846
  0
LINE
  8
OBRYS
 10
1512.578463
 20
1265.313245
 11
1512.443156
 21
1265.328474
  0
LINE
  8
OBRYS
 10
1512.443156
 20
1265.328474
 11
1512.310893
 21
1265.296970
  0
LINE
  8
OBRYS
 10
1512.310893
 20
1265.296970
 11
1512.138294
 21
1265.189019
  0
LINE
  8
OBRYS
 10
1512.138294
 20
1265.189019
 11
1511.787250
 21
1264.764359
  0
LINE
  8
OBRYS
 10
1511.787250
 20
1264.764359
 11
1510.764213
 21
1262.559309
  0
LINE
  8
OBRYS
 10
1510.764213
 20
1262.559309
 11
1509.971584
 21
1260.314547
  0
LINE
  8
OBRYS
 10
1509.971584
 20
1260.314547
 11
1509.707024
 21
1259.409768
  0
LINE
  8
OBRYS
 10
1509.707024
 20
1259.409768
 11
1509.591309
 21
1258.858389
  0
LINE
  8
OBRYS
 10
1509.591309
 20
1258.858389
 11
1509.578463
 21
1258.690836
  0
ARC
  8
OBRYS
 10
1504.659303
 20
1258.617783
 40
4.919702
 50
0.850820
 51
88.909190
  0
ARC
  8
OBRYS
 10
1513.490378
 20
1254.296857
 40
12.716729
 50
105.691486
 51
133.399453
  0
ARC
  8
OBRYS
 10
1510.228907
 20
1263.688714
 40
2.856487
 50
34.660776
 51
93.569893
  0
LINE
  8
OBRYS
 10
1504.752960
 20
1263.528629
 11
1504.752960
 21
1263.536593
  0
LINE
  8
OBRYS
 10
1501.578463
 20
1267.408110
 11
1509.578663
 21
1266.579791
  0
LINE
  8
OBRYS
 10
1509.578663
 20
1266.579791
 11
1510.051044
 21
1266.539658
  0
LINE
  8
OBRYS
 10
1509.578463
 20
1258.690836
 11
1509.578463
 21
1258.675343
  0
ARC
  8
OBRYS
 10
1511.837855
 20
1249.573386
 40
6.993113
 50
83.920674
 51
108.849789
  0
LINE
  8
OBRYS
 10
1512.578463
 20
1265.313245
 11
1512.578463
 21
1256.527171
  0
LINE
  8
OBRYS
 10
1512.578463
 20
1256.527171
 11
1512.578463
 21
1255.278155
  0
LINE
  8
OBRYS
 10
1512.578463
 20
1255.278155
 11
1512.526105
 21
1255.277204
  0
ARC
  8
OBRYS
 10
1512.804493
 20
1252.060117
 40
3.229110
 50
94.945709
 51
182.502662
  0
ARC
  8
OBRYS
 10
1511.796731
 20
1331.378671
 40
118.343618
 50
268.925968
 51
270.353127
  0
LINE
  8
OBRYS
 10
1512.578463
 20
1256.527171
 11
1561.578463
 21
1256.527171
  0
LINE
  8
OBRYS
 10
1501.578463
 20
1283.384846
 11
1561.578463
 21
1283.384846
  0
LINE
  8
OBRYS
 10
1561.578463
 20
1283.384846
 11
1561.578463
 21
1256.527171
  0
LINE
  8
OBRYS
 10
1561.578463
 20
1256.103809
 11
1551.580187
 21
1255.933207
  0
LINE
  8
OBRYS
 10
1551.580187
 20
1255.933207
 11
1512.578463
 21
1255.278155
  0
LINE
  8
OBRYS
 10
1561.578463
 20
1256.527171
 11
1561.578463
 21
1256.103809
  0
LINE
  8
OBRYS
 10
1501.578463
 20
1287.806285
 11
1561.578463
 21
1287.806285
  0
LINE
  8
OBRYS
 10
1561.578463
 20
1287.806285
 11
1561.578463
 21
1283.384846
  0
LINE
  8
OBRYS
 10
1512.526105
 20
1213.037300
 11
1535.600666
 21
1212.610584
  0
LINE
  8
OBRYS
 10
1535.600666
 20
1212.610584
 11
1561.578463
 21
1212.141795
  0
LINE
  8
OBRYS
 10
1561.578463
 20
1212.141795
 11
1561.578463
 21
1256.146194
  0
ARC
  8
OBRYS
 10
1501.568968
 20
1294.849816
 40
4.990514
 50
180.109430
 51
270.109013
  0
LINE
  8
OBRYS
 10
1501.578463
 20
1289.859311
 11
1501.578463
 21
1287.806285
  0
LINE
  8
OBRYS
 10
1501.578463
 20
1289.859311
 11
1561.578463
 21
1289.859311
  0
LINE
  8
OBRYS
 10
1561.578463
 20
1289.859311
 11
1561.578463
 21
1287.806285
  0
LINE
  8
OBRYS
 10
1247.578463
 20
1259.758090
 11
1248.578463
 21
1260.206093
  0
LINE
  8
OBRYS
 10
1247.578463
 20
1280.153927
 11
1247.578463
 21
1259.758090
  0
LINE
  8
OBRYS
 10
1248.578463
 20
1279.705924
 11
1247.578463
 21
1280.153927
  0
LINE
  8
OBRYS
 10
1248.578463
 20
1188.138655
 11
1247.578463
 21
1188.903927
  0
LINE
  8
OBRYS
 10
1247.578463
 20
1188.903927
 11
1186.578463
 21
1188.903927
  0
LINE
  8
OBRYS
 10
1186.578463
 20
1259.758090
 11
1247.578463
 21
1259.758090
  0
LINE
  8
OBRYS
 10
1247.578463
 20
1280.153927
 11
1186.578463
 21
1280.153927
  0
LINE
  8
OBRYS
 10
1186.578463
 20
1351.008090
 11
1247.578463
 21
1351.008090
  0
LINE
  8
OBRYS
 10
1247.578463
 20
1351.008090
 11
1248.578463
 21
1351.773362
  0
LINE
  8
OBRYS
 10
1186.578463
 20
1280.153927
 11
1186.578463
 21
1259.758090
  0
LINE
  8
OBRYS
 10
1496.578463
 20
1294.840285
 11
1496.674536
 21
1294.584775
  0
LINE
  8
OBRYS
 10
1496.674536
 20
1294.584775
 11
1496.959065
 21
1294.339085
  0
LINE
  8
OBRYS
 10
1496.959065
 20
1294.339085
 11
1497.421115
 21
1294.112655
  0
LINE
  8
OBRYS
 10
1497.421115
 20
1294.112655
 11
1498.042929
 21
1293.914188
  0
LINE
  8
OBRYS
 10
1498.042929
 20
1293.914188
 11
1498.800611
 21
1293.751310
  0
LINE
  8
OBRYS
 10
1498.800611
 20
1293.751310
 11
1499.665046
 21
1293.630281
  0
LINE
  8
OBRYS
 10
1499.665046
 20
1293.630281
 11
1500.603011
 21
1293.555752
  0
LINE
  8
OBRYS
 10
1500.603011
 20
1293.555752
 11
1501.578463
 21
1293.530586
  0
LINE
  8
OBRYS
 10
1501.578463
 20
1293.530586
 11
1501.578463
 21
1289.859311
  0
LINE
  8
OBRYS
 10
1496.578463
 20
1336.913679
 11
1496.674536
 21
1336.226163
  0
LINE
  8
OBRYS
 10
1496.674536
 20
1336.226163
 11
1496.959065
 21
1335.565069
  0
LINE
  8
OBRYS
 10
1496.959065
 20
1335.565069
 11
1497.421115
 21
1334.955801
  0
LINE
  8
OBRYS
 10
1497.421115
 20
1334.955801
 11
1498.042929
 21
1334.421772
  0
LINE
  8
OBRYS
 10
1498.042929
 20
1334.421772
 11
1498.800611
 21
1333.983507
  0
LINE
  8
OBRYS
 10
1498.800611
 20
1333.983507
 11
1499.665046
 21
1333.657846
  0
LINE
  8
OBRYS
 10
1499.665046
 20
1333.657846
 11
1500.603011
 21
1333.457305
  0
LINE
  8
OBRYS
 10
1500.603011
 20
1333.457305
 11
1501.578463
 21
1333.389591
  0
LINE
  8
OBRYS
 10
1501.578463
 20
1333.389591
 11
1501.578463
 21
1293.530586
  0
LINE
  8
OBRYS
 10
1501.578463
 20
1293.530586
 11
1561.578463
 21
1293.530586
  0
LINE
  8
OBRYS
 10
1561.578463
 20
1293.530586
 11
1561.578463
 21
1289.859311
  0
LINE
  8
OBRYS
 10
1501.578463
 20
1333.389591
 11
1561.578463
 21
1333.389591
  0
LINE
  8
OBRYS
 10
1561.578463
 20
1333.389591
 11
1561.578463
 21
1293.530586
  0
LINE
  8
OBRYS
 10
1565.078463
 20
1349.956009
 11
1565.078463
 21
1189.956009
  0
LINE
  8
OBRYS
 10
1496.578463
 20
1336.913679
 11
1496.674536
 21
1337.325923
  0
LINE
  8
OBRYS
 10
1496.674536
 20
1337.325923
 11
1496.959065
 21
1337.722324
  0
LINE
  8
OBRYS
 10
1496.959065
 20
1337.722324
 11
1497.421115
 21
1338.087650
  0
LINE
  8
OBRYS
 10
1497.421115
 20
1338.087650
 11
1498.042929
 21
1338.407860
  0
LINE
  8
OBRYS
 10
1498.042929
 20
1338.407860
 11
1498.800611
 21
1338.670650
  0
LINE
  8
OBRYS
 10
1498.800611
 20
1338.670650
 11
1499.665046
 21
1338.865921
  0
LINE
  8
OBRYS
 10
1499.665046
 20
1338.865921
 11
1500.603011
 21
1338.986168
  0
LINE
  8
OBRYS
 10
1500.603011
 20
1338.986168
 11
1501.578463
 21
1339.026770
  0
LINE
  8
OBRYS
 10
1512.578463
 20
1200.885247
 11
1511.993192
 21
1200.909608
  0
LINE
  8
OBRYS
 10
1511.993192
 20
1200.909608
 11
1511.430412
 21
1200.981757
  0
LINE
  8
OBRYS
 10
1511.430412
 20
1200.981757
 11
1510.911752
 21
1201.098919
  0
LINE
  8
OBRYS
 10
1510.911752
 20
1201.098919
 11
1510.457142
 21
1201.256593
  0
LINE
  8
OBRYS
 10
1510.457142
 20
1201.256593
 11
1510.084054
 21
1201.448719
  0
LINE
  8
OBRYS
 10
1510.084054
 20
1201.448719
 11
1509.806824
 21
1201.667915
  0
LINE
  8
OBRYS
 10
1509.806824
 20
1201.667915
 11
1509.636107
 21
1201.905756
  0
LINE
  8
OBRYS
 10
1509.636107
 20
1201.905756
 11
1509.578463
 21
1202.153102
  0
LINE
  8
OBRYS
 10
1561.578463
 20
1179.536404
 11
1561.578463
 21
1173.400152
  0
LINE
  8
OBRYS
 10
1561.578463
 20
1366.511865
 11
1561.578463
 21
1360.375613
  0
LINE
  8
OBRYS
 10
1512.578463
 20
1200.885247
 11
1561.578463
 21
1200.885247
  0
LINE
  8
OBRYS
 10
1561.578463
 20
1200.885247
 11
1561.578463
 21
1179.536404
  0
LINE
  8
OBRYS
 10
1501.578463
 20
1339.026770
 11
1561.578463
 21
1339.026770
  0
LINE
  8
OBRYS
 10
1561.578463
 20
1360.375613
 11
1561.578463
 21
1339.026770
  0
LINE
  8
OBRYS
 10
1512.578463
 20
1211.053233
 11
1512.550457
 21
1211.980147
  0
LINE
  8
OBRYS
 10
1512.550457
 20
1211.980147
 11
1512.526105
 21
1213.037300
  0
ARC
  8
OBRYS
 10
1512.149716
 20
1208.434708
 40
2.653394
 50
80.701138
 51
165.706372
  0
LINE
  8
OBRYS
 10
1561.578463
 20
1173.400152
 11
1561.578463
 21
1159.971315
  0
LINE
  8
OBRYS
 10
1561.578463
 20
1379.940703
 11
1561.578463
 21
1366.511865
  0
LINE
  8
OBRYS
 10
1512.578463
 20
1211.053233
 11
1512.578463
 21
1206.522426
  0
ARC
  8
OBRYS
 10
1512.201039
 20
1203.872481
 40
2.676687
 50
81.894042
 51
168.459667
  0
LINE
  8
OBRYS
 10
1561.578463
 20
1210.064486
 11
1535.548309
 21
1210.583392
  0
LINE
  8
OBRYS
 10
1535.548309
 20
1210.583392
 11
1512.578463
 21
1211.053233
  0
LINE
  8
OBRYS
 10
1561.578463
 20
1212.141795
 11
1561.578463
 21
1210.064486
  0
LINE
  8
OBRYS
 10
1247.578463
 20
1188.903927
 11
1247.578463
 21
1186.782123
  0
LINE
  8
OBRYS
 10
1186.578463
 20
1178.706009
 11
1201.776542
 21
1178.706009
  0
LINE
  8
OBRYS
 10
1186.578463
 20
1188.903927
 11
1186.578463
 21
1178.706009
  0
LINE
  8
OBRYS
 10
1201.776542
 20
1361.206009
 11
1186.578463
 21
1361.206009
  0
LINE
  8
OBRYS
 10
1247.578463
 20
1353.129894
 11
1247.578463
 21
1351.008090
  0
LINE
  8
OBRYS
 10
1186.578463
 20
1361.206009
 11
1186.578463
 21
1351.008090
  0
LINE
  8
OBRYS
 10
1512.578463
 20
1206.522426
 11
1561.578463
 21
1206.522426
  0
LINE
  8
OBRYS
 10
1561.578463
 20
1210.064486
 11
1561.578463
 21
1206.522426
  0
LINE
  8
OBRYS
 10
1501.578463
 20
1339.026770
 11
1501.578463
 21
1333.389591
  0
LINE
  8
OBRYS
 10
1512.578463
 20
1206.522426
 11
1512.578463
 21
1200.885247
  0
LINE
  8
OBRYS
 10
1561.578463
 20
1206.522426
 11
1561.578463
 21
1200.885247
  0
LINE
  8
OBRYS
 10
1561.578463
 20
1339.026770
 11
1561.578463
 21
1333.389591
  0
LINE
  8
OBRYS
 10
1561.578463
 20
1159.971315
 11
1561.578463
 21
1159.554010
  0
LINE
  8
OBRYS
 10
1561.578463
 20
1380.358007
 11
1561.578463
 21
1379.940703
  0
LINE
  8
OBRYS
 10
1567.078463
 20
1229.956009
 11
1567.078463
 21
1309.956009
  0
LINE
  8
OBRYS
 10
1569.078463
 20
1230.683949
 11
1569.078463
 21
1309.228068
  0
LINE
  8
OBRYS
 10
1688.078463
 20
1239.956009
 11
1688.078463
 21
1299.956009
  0
LINE
  8
OBRYS
 10
1689.078463
 20
1240.956009
 11
1689.078463
 21
1298.956009
  0
LINE
  8
OBRYS
 10
1526.578463
 20
1159.554010
 11
1526.578463
 21
1139.621999
  0
LINE
  8
OBRYS
 10
1526.578463
 20
1400.290019
 11
1526.578463
 21
1380.358007
  0
LINE
  8
OBRYS
 10
1156.578463
 20
1119.956009
 11
1156.578463
 21
1419.956009
  0
LINE
  8
OBRYS
 10
1174.578463
 20
1417.396057
 11
1174.578463
 21
1122.515960
  0
LINE
  8
OBRYS
 10
1186.578463
 20
1169.956009
 11
1186.578463
 21
1369.956009
  0
LINE
  8
OBRYS
 10
1283.078463
 20
1093.456009
 11
1304.078463
 21
1093.456009
  0
LINE
  8
OBRYS
 10
1501.403965
 20
1263.642216
 11
1501.403965
 21
1189.105142
  0
LINE
  8
OBRYS
 10
1504.752960
 20
1188.514624
 11
1504.752960
 21
1263.528629
  0
LINE
  8
OBRYS
 10
1250.508664
 20
1352.613221
 11
1250.508664
 21
1187.298796
  0
LINE
  8
OBRYS
 10
1442.078463
 20
1446.456009
 11
1421.078463
 21
1446.456009
  0
LINE
  8
OBRYS
 10
1242.578463
 20
1231.120580
 11
1242.578463
 21
1213.120580
  0
LINE
  8
OBRYS
 10
1242.578463
 20
1326.791438
 11
1242.578463
 21
1308.791438
  0
LINE
  8
OBRYS
 10
1512.526105
 20
1255.336125
 11
1512.526105
 21
1213.037300
  0
LINE
  8
OBRYS
 10
1501.578463
 20
1350.837643
 11
1501.578463
 21
1339.026770
  0
LINE
  8
OBRYS
 10
1512.578463
 20
1200.885247
 11
1512.578463
 21
1187.134777
  0
LINE
  8
OBRYS
 10
1554.033969
 20
1179.536404
 11
1561.578463
 21
1179.536404
  0
LINE
  8
OBRYS
 10
1556.578463
 20
1173.400152
 11
1561.578463
 21
1173.400152
  0
LINE
  8
OBRYS
 10
1554.033969
 20
1360.375613
 11
1561.578463
 21
1360.375613
  0
LINE
  8
OBRYS
 10
1556.578463
 20
1366.511865
 11
1561.578463
 21
1366.511865
  0
LINE
  8
OBRYS
 10
1556.578463
 20
1159.971315
 11
1561.578463
 21
1159.971315
  0
LINE
  8
OBRYS
 10
1556.578463
 20
1379.940703
 11
1561.578463
 21
1379.940703
  0
LINE
  8
OBRYS
 10
1172.648262
 20
1120.517178
 11
1172.648262
 21
1419.394839
  0
LINE
  8
0
 62
     2
 10
1177.473764
 20
1169.638066
 11
1177.473764
 21
1370.273952
  0
ENDSEC
  0
EOF

